>
 >
Magsasaya

Magsasaya Guitar Tabs

6 Cycle Mind - Magsasaya chords, tabs, tablatures, lyrics

Guitar lessons | Add/correct | Request | Top 50 tabs Artists:  A B C D E F G H I J K L M N O P Q R S T U V W X Y Z 0-9

Magsasaya Guitar Tabs – 6 Cycle Mind

CD, Sheet music, Poster

Do you like Magsasaya? Share with your friends now
ChordsTabsUkulele

For any comments and Suggestion:


Tuning: Standard (Optional) 

       Pacenxia kung Standard Ginamit ko di 1/2 step down..I hope you like it
  
Chord Used: D-Bm-C then Bm-C

Intro 1:

Guitar 1:

e-----------------------------------------|
b-----------------------------------------|
g-----------------------------------------|
D-----------------------------------------| 4x
A---3h5—5h7---7h9---3h5—3h5---------------|
E-----------------------------------------|

Guitar 1:
Then Repeat again (0:13)(magsasaya…ang lahat)
e----------------------------------------|
b----------------------------------------|
g----------------------------------------|
D----------------------------------------|
A---3h5—5h7---7h9---3h5—3h5--------------|
E----------------------------------------|

Guitar 2:(0:26) (papasok)

e-----------------------|
b-----------------------|
g--7-~---4~----5~------|
D--7-~---4~----5-~------|
A--5~----2~----3~-------|
E-----------------------|

Guitar 1:(0:32)

e---------------------------------------------------|
b---------------------------------------------------|
g--11h9-11h7-11h9-11p12p11---11h9-11h7-12-11-9-7----|
D---------------------------------------------------|
A---------------------------------------------------|
E---------------------------------------------------|

Guitar 2:
e-------------------------------|
b-------------------------------|
g--777---444-----5555-----------|
D--777---444-----5555-----------|
A--555---222-----3333-----------|
E-------------------------------|

Verse: (drums beat)

Guitar 1 (0:56)

Fill-In:

e-------------------------------------------------|
b-------------------------------------------------|
g-14-14-12-12-11-11-------------------------------|
D-------------------------14-14--12-12------------|
A-------------------------------------------------|
E-------------------------------------------------|



Guitar 2: kaw ba ay nainis….

e-------------------------------|
b-------------------------------|
g-----7777----4444-------5555---| 2x
D-----7777----4444-------5555---|
A-----5555----2222-------3333---|
E-------------------------------|

Dahil ngayon gabi…
e--------------------|
b--------------------|
g-------4~---5~------|
D-------4~---5~------|
A-------2~---3~------|
E--------------------|

Chorus:
Guitar 1:

Magsasaya…..
e-------------------------------|
b-------------------------------|
g-----777777---999999----11111--|
D----xxxxxx---xxxxxx---xxxxx----|   2x
A----555555---777777---99999----|
E-------------------------------|



Then Intro again

Intro 2:

Guitar 1:

e--------------------------------------------------------|
b--------------------------------------------------------|
g--11h9-11h7-11h9-11p12p11---11h9-11h7-12-11-9-7---------|
D--------------------------------------------------------|
A--------------------------------------------------------|
E--------------------------------------------------------|

Guitar 2:
e-------------------------------------|
b-------------------------------------|
g--777---444-----5555-----------------|
D--777---444-----5555-----------------|
A--555---222-----3333-----------------|
E-------------------------------------|

Verse: (drums beat)

(reggae Moves)
e-----------------------------|
b-----------------------------|
g--777---444-----5555---------|
D--777---444-----5555---------|
A--555---222-----3333---------|
E-----------------------------|


Dahil ngayon gabi…
e---------------------|
b---------------------|
g-------4~---5~-------|
D-------4~---5~-------|
A-------2~---3~-------|
E---------------------|

Chorus:
Guitar 1: (sabayan niyo sa kanta)

Magsasaya….
e-------------------------------------|
b-------------------------------------|
g----777777--  999999----11111--------|
D----xxxxxx---xxxxxx-----xxxxx--------|  2x
A----555555---777777-----99999--------|
E-------------------------------------|

Adlib:
Guitar 2:
e-----------------------------|
b-----------------------------|
g--777---444-----5555---------|
D--777---444-----5555---------|
A--555---222-----3333---------|
E-----------------------------|



Then 
Dahil ngayon gabi…
e------------------------|
b------------------------|
g----4444-----5555-------| 2x
D----4444------5555------|
A----2222------3333------|
E------------------------|

Chorus: (drums beat) (3:14)

Then Guitar 1 pasok:(CLEAN) 

e----------------------------------------------------------|
b----7----7---7--7-----7p8p7-----7---7--7--7-----8h7--5-3--|
g--------9---9---9--9-----------------9---9--9--9----------|
D----------------------------------------------------------| 2x
A----------------------------------------------------------|
E----------------------------------------------------------|

Guitar 2(3:36)
(reggae Moves)
e-------------------------|
b-------------------------|
g--777---999-----1111-----|
D--777---999-----1111-----|
A--555---777-----9999-----|
E-------------------------|

Guitar 1:

e--------------------------|
b--------------------------|
g-----11\--11\19\-7--------|
D---- x-\--x-\-x\x---------|
A----10-\--9-\-7\-5--------|
E--------------------------|

Then Chorus:

Chorus:

Guitar 1: (sabayan niyo sa kanta)

Magsasaya….
e------------------------------|
b------------------------------|
g----777777---999999---11111---|
D----xxxxxx---xxxxxx---xxxxx---|  2x
A----555555---777777---99999---|
E------------------------------|

Outro:

Guitar 1:

e-----------------------------------------|
b-----------------------------------------|
g-----------------------------------------|
D-----------------------------------------| 4x
A---3h5—5h7---7h9---3h5—3h5---------------|
E-----------------------------------------|

Guitar 1:

e----------------------------------------|
b----------------------------------------|
g----------------------------------------|
D----------------------------------------|
A---3h5—5h7---7h9---3h5—3h5--------------|
E----------------------------------------|

Guitar 2

e-----------------------|
b-----------------------|
g--7-~---4~----5~-------|
D--7-~---4~----5-~------|
A--5~----2~----3~-------|
E-----------------------|

Intro 2:

e-----------------------|
b-----------------------|
g--7-~---4~----5~-------|
D--7-~---4~----5-~------|
A--5~----2~----3~-------|
E-----------------------|

Guitar 1:

e---------------------------------------------------|
b---------------------------------------------------|
g--11h9-11h7-11h9-11p12p11---11h9-11h7-12-11-9-7----|
D---------------------------------------------------|
A---------------------------------------------------|
E---------------------------------------------------|


then Fade:





Comments


Popular 6 Cycle Mind tabs & chords
In Between Days Chords
Trip Chords
Walang Hanggan 1 Chords
Biglaan 1 Tabs
Dinamayan 1 Tabs
Sige (Solo) Tabs
Be My Number Two Ukulele
Merry Xmas To All Ukulele
Pangarap Ukulele
Saludo Ukulele


Song lyrics



↑ Back to top | Tablatures and chords are parodies/interpretations of the original songs. You may use it for private study, scholarship, research or language learning purposes only
© 2014 AZChords.com Contact us | Privacy policy | DMCA | Add/correct tabs | Request tabs | Top 50 tabs