>
 >
Kailanman

Kailanman Guitar Tabs

6 Cycle Mind - Kailanman chords, tabs, tablatures, lyrics

Guitar lessons | Add/correct | Request | Top 50 tabs Artists:  A B C D E F G H I J K L M N O P Q R S T U V W X Y Z 0-9

Kailanman Guitar Tabs – 6 Cycle Mind

CD, Sheet music, Poster

Do you like Kailanman? Share with your friends now
Tabs
Title       : kailanman
Artist      : 6 cycle mind
Album	    : Panorama



Legend:

 () ghost note
 h  hammer 

Intro:

eb|-0-------------------2-------|
Bb|----3----------------3-------|
Gb|--------2---4-2-0----0-------|
Db|-0----------------4----------|  
Ab|-----------------------------|
Eb|------------3----------------|

eb|-------0h2-----5-5-----3-----2--|
Bb|-3---------2-------3----3-------|
Gb|----2---------------------------|
Db|-0------------------------------|  
Ab|--------------------------------|
Eb|-----------------3---3-----3----|


Verse 1:

eb|----------------0-----|-----------0--------|
Bb|--------3-------------|------3------(3)----|
Gb|-----2------2---------|----2---2-------(2)-|
Db|--0-------------------|--5-----------------|  
Ab|----------------------|--------------------|
Eb|----------------------|--------------------|
    Dumating na ang bagong araw
     
eb|--------------0-----|-------3-2-----------|
Bb|--------2-----------|-----3-----(3)-------|
Gb|-----3-----3--------|---0-----------(0)---|
Db|--0-----------------|---------------------|  
Ab|--------------------|---------------------|
Eb|--------------------|-3-------------------|
   Salubungin nating dal'wa

eb|----------------0-----|-----------0--------|
Bb|--------3-------------|------3-------------|
Gb|-----2------2---------|----2---2-----------|
Db|--0-------------------|--5-----------------|  
Ab|----------------------|--------------------|
Eb|----------------------|--------------------|  
     Sa bawat bukas na     darating

eb|--------------0-----|-3-----2-------------|
Bb|--------2-----------|---3-----3-----------|
Gb|-----3-----3--------|-----0-----0---------|
Db|--0-----------------|---------------------|  
Ab|--------------------|---------------------|
Eb|--------------------|-3-------------------|
   Tayo'y may         pag asa 

Instrumental:

eb|----------------0-----|---------0----------|
Bb|--------3---------3---|-------3------------|
Gb|-----2------2---------|-----0--------------|
Db|--0-------------------|-0h2----------------|  
Ab|----------------------|--------------------|
Eb|----------------------|--------------------|  

Verse 2:

eb|----------------0-----|-----------0--------|
Bb|--------3-------------|------3------(3)----|
Gb|-----2------2---------|----2---2-------(2)-|
Db|--0-------------------|--5-----------------|  
Ab|----------------------|--------------------|
Eb|----------------------|--------------------|
   Makulay ang   ating     buhay
     
eb|--------------0-----|-------3-2-----------|
Bb|--------2-----------|-----3-----(3)-------|
Gb|-----3-----3--------|---0-----------(0)---|
Db|--0-----------------|---------------------|  
Ab|--------------------|---------------------|
Eb|--------------------|-3-------------------|
  Minsan puno ng        pagsubok

eb|----------------0-----|-----------0--------|
Bb|--------3-------------|------3-------------|
Gb|-----2------2---------|----2---2-----------|
Db|--0-------------------|--5-----------------|  
Ab|----------------------|--------------------|
Eb|----------------------|--------------------|  
     Lahat ito'y lilipas din

eb|--------------0-----|-3-----2-------------|
Bb|--------2-----------|---3-----3-----------|
Gb|-----3-----3--------|-----0-----0---------|
Db|--0-----------------|---------------------|  
Ab|--------------------|---------------------|
Eb|--------------------|-3-------------------|
    Tadhana'y       matatanaw
 

Refrain:

eb|----------2------------------2----------------|
Bb|------3-----(3)---------2------(2)------------|
Gb|--------4------(4)--------2-------(2)---------|
Db|---4------------------2-----------------------|  
Ab|-2------------------0-------------------------|
Eb|----------------------------------------------|
    Hawakan mong       aking kamay

eb|-----------5------3-----2---------------|
Bb|-----3-------3------3-------------------|
Gb|---0------------------------------------|
Db|----------------------------------------|  
Ab|----------------------------------------|
Eb|-3------3------3------3-----------------|
     Sabay tayong maglalakbay

eb|----------2------------------2----------------|
Bb|------3-----(3)---------2------(2)------------|
Gb|--------4------(4)--------2-------(2)---------|
Db|---4------------------2-----------------------|  
Ab|-2------------------0-------------------------|
Eb|----------------------------------------------|
    Wag ka nang     mangangamba

eb|-----------5------3-----2---------------|
Bb|-----3-------3------3-----3-------------|
Gb|---0------------------------------------|
Db|----------------------------------------|  
Ab|----------------------------------------|
Eb|-3------3------3------3-----------------|
     Landas nati'y iisa

eb|-0------0------0----0-----------------------|
Bb|-3----3---3----3--3---3---------------------|
Gb|-2---2------2--2-2-----2--------------------|
Db|-2--2----------2----------------------------|  
Ab|-0-------------0----------------------------|
Eb|--------------------------------------------|

Chorus. Medyo strumming na dito ng kaunti
 
      D-A     G		  GM7
Kailanman.. ako'y sayo lamang
       D-A	   G	      GM7
Kailanman.. ang pangako ko sayo'y
   G	     A
Di na mababago



Instrumental:

eb|-0-------------------2-------|
Bb|----3----------------3-------|
Gb|--------2---4-2-0----0-------|
Db|-0----------------4----------|  
Ab|-----------------------------|
Eb|------------3----------------|

eb|-------0h2-----5-5-----3-----2--|
Bb|-3---------2-------3----3-------|
Gb|----2---------------------------|
Db|-0------------------------------|  
Ab|--------------------------------|
Eb|-----------------3---3-----3----|



III The same plucking just like in verse 1

Sa tuwing ako'y nalulumbay
Ginhawa ang iyong binibigay
Ilaw ka sa kadiliman
Kulay ka ng aking buhay

Refrain. 

eb|----------2------------------2----------------|
Bb|------3-----(3)---------2------(2)------------|
Gb|--------4------(4)--------2-------(2)---------|
Db|---4------------------2-----------------------|  
Ab|-2------------------0-------------------------|
Eb|----------------------------------------------|
    Hawakan mong       aking kamay

eb|-----------5------3-----2---------------|
Bb|-----3-------3------3-------------------|
Gb|---0------------------------------------|
Db|----------------------------------------|  
Ab|----------------------------------------|
Eb|-3------3------3------3-----------------|
     Sabay tayong maglalakbay

eb|----------2------------------2----------------|
Bb|------3-----(3)---------2------(2)------------|
Gb|--------4------(4)--------2-------(2)---------|
Db|---4------------------2-----------------------|  
Ab|-2------------------0-------------------------|
Eb|----------------------------------------------|
    Wag ka nang     mangangamba

eb|-----------5------3-----2---------------|
Bb|-----3-------3------3-----3-------------|
Gb|---0------------------------------------|
Db|----------------------------------------|  
Ab|----------------------------------------|
Eb|-3------3------3------3-----------------|
     Landas nati'y iisa

eb|-0------0------0----0--------------------|
Bb|-3----3---3----3--3---3------------------|
Gb|-2---2------2--2-2-----2-----------------|
Db|-2--2----------2-------------------------|  
Ab|-0-------------0-------------------------|
Eb|-----------------------------------------|

Chorus. 
 
      D-A     G		  GM7
Kailanman.. ako'y sayo lamang
       D-A	   G	      GM7
Kailanman.. ang pangako ko sayo'y
   G	     A
Di na mababago



Bridge
D-A-G-GM7
Ohhh... ohh.... ohh....

Adlib: D-A-G-GM7 (2x)

Chorus. 
 
      D-A     G		  GM7
Kailanman.. ako'y sayo lamang
       D-A	   G	      GM7
Kailanman.. ang pangako ko sayo'y
   G	     A
Di na mababago

Outro:

eb|-0-------------------2-------|
Bb|----3----------------3-------|
Gb|--------2---4-2-0----0-------|
Db|-0----------------4----------|  
Ab|-----------------------------|
Eb|------------3----------------|

eb|-------0h2-----5-5-----3-----2--|
Bb|-3---------2-------3----3-------|
Gb|----2---------------------------|
Db|-0------------------------------|  
Ab|--------------------------------|
Eb|-----------------3---3-----3----|


For comments send me a message in Friendster. 


And u Can also add me as your friend Or send me a testimonial.hehehe
God bless!





Comments


Popular 6 Cycle Mind tabs & chords
Alapaap 1 Chords
Dinamayan 1 Chords
Kasalanan Chords
Prisesa Chords
Sandalan Chords
Sumabay Chords
Sandalan 2 Tabs
Upside Down 1 Tabs
Alagaan Mo Siya Ukulele
Home Ukulele


Song lyrics



↑ Back to top | Tablatures and chords are parodies/interpretations of the original songs. You may use it for private study, scholarship, research or language learning purposes only
© 2014 AZChords.com Contact us | Privacy policy | DMCA | Add/correct tabs | Request tabs | Top 50 tabs