>
 >
Biglaan 4

Biglaan 4 Guitar Tabs

6 Cycle Mind - Biglaan 4 chords, tabs, tablatures, lyrics

Guitar lessons | Add/correct | Request | Top 50 tabs Artists:  A B C D E F G H I J K L M N O P Q R S T U V W X Y Z 0-9

Biglaan 4 Guitar Tabs – 6 Cycle Mind

CD, Sheet music, Poster

Do you like Biglaan 4? Share with your friends now
Bass TabsBass Tabs v2Bass Tabs v3ChordsChords v2TabsTabs v2Tabs v3Tabs v4Ukulele
Biglaan (acoustic)
6 Cycle Mind
Standard: EADGBE

G	320033
Gsus(maryosep)	200033
Em	022000
D	x00323
C	x32010

==========
Intro: (Acoustic)

Guitar1: G - Gsus - C9 (2x)
Guitar2: ( pwede nyo rin laruin na lng ung G sa power chords )
e|---10------10----|---10------10----|---10------10----|---10------10----|
B|-----10------10--|-----10------10--|-----10------10--|-----10------10--|
G|-12------12------|-11------11------|-----------------|-----------------|
D|-----------------|-----------------|-12------12------|-10------10------|
A|-----------------|-----------------|-----------------|-----------------|
E|-----------------|-----------------|-----------------|-----------------|

============
Verse:
============
Guitar1: tunganga ka po lang d2...
Guitar2:
e|-----------------|---------------------|------------------------------|
B|-3-----3-------3-|-3-----3-------3-----|-3-----3---------3------------|
G|---0-2-----0-2---|---0-2-----0-2-------|---0-2-----0-2-4-5/4-0-0-2----|
D|-----------------|---------------------|------------------------------|
A|-----------------|---------------------|------------------------------|
E|-----------------|---------------------|------------------------------|	
Nandito nakaukit pa rin sa puso ko		
Ng sabihin mong wag na lang

Guitar1: (strum kana po d2...)
Guitar2:
e|-----------------|---------------------|------------------------------|
B|-3-----3-------3-|-3-----3-------3-----|-3-----3---------3------------|
G|---0-2-----0-2---|---0-2-----0-2-------|---0-2-----0-2-4-5/4-0-0-2----|
D|-----------------|---------------------|------------------------------|
A|-----------------|---------------------|------------------------------|
E|-----------------|---------------------|------------------------------|
G   	     Gsus           C9
Nandito nakatatak pa rin sa isip ko
       G            Gsus	 C9
Kung paano mo kinalimutan ang lahat


================================================
Refrain:
================================================

Guitar1: ( strum ka po ulit d2..)
Guitar2:
e|-2/3-2--2/3-2-3--|-2/3-2--2/3-2-3--|-2/3-2--2/3-2-3--|
B|-----------------|-----------------|-----------------|
G|-----------------|-----------------|-----------------|
D|-----------------|-----------------|-----------------|
A|-----------------|-----------------|-----------------|
E|-----------------|-----------------|-----------------|
D	 C
  Kay bilis  
D        C  
  ba't umalis
D	  C
  Nakakamiss


============
Chorus:
============
Guitar1: ( struming ka pa po rin d2... )
Guitar2:
e|-2/3-3-2-3-2-3-2-|-2/3-3-2-3-2-3-2-|-----------------|-----------------|
B|-----------------|-----------------|---3---1---------|--3/5--3---------|
G|-----------------|-----------------|-----------0-----|----------0----2-|
D|-----------------|-----------------|-----------------|-----------------|
A|-----------------|-----------------|-----------------|-----------------|
E|-----------------|-----------------|-----------------|-----------------|
    G				Gsus    Cadd9	
Nabigla lang, di ko man lamang nalaman na mawawala
    G				Gsus	     Cadd9
Nabigla lang, di ko man lamang naisip na idahan - dahan


============
Bridge:
============
Guitar1: ( puro bagsak ka nman po d2... )
Guitar2: ( ikaw nman po tumunganga d2... )
Am                 G 
   Di ako sanay sa biglaan
Am		       D	
   Unti - unti na lang sanang nawala


========================
(Intro)
========================


================================================================================================
Verse 2:
================================================================================================
Guitar1: ( strum po... )
Guitar2: plucking mo po ung chords... ( pwede din pong tunganga ka ulit :)
	 G     Gsus	      C9	 
Hindi ba natin kayang magkunwari
      G	      Gsus   C9 		
At sabihing sige na lang
	 G	Gsus	 C9
Hindi ba natin kayang dayain
	G	   Gsus       C9	
Ang mga yakap sa tuwing lumalamig


================================================
Refrain: 
================================================
Guitar1: ( struming )
Guitar2:
e|-2/3-2--2/3-2-3--|-2/3-2--2/3-2-3--|-2/3-2--2/3-2-3--|
B|-----------------|-----------------|-----------------|
G|-----------------|-----------------|-----------------|
D|-----------------|-----------------|-----------------|
A|-----------------|-----------------|-----------------|
E|-----------------|-----------------|-----------------|
D	  C    D          C 
  Kay bilis      ba't umalis
D	  C
  Nakakamiss


============
Chorus: ( ulit lang po chords d2... )
============
    G				Gsus    C9	
Nabigla lang, di ko man lamang nalaman na mawawala
    G				Gsus	     C9
Nabigla lang, di ko man lamang naisip na idahan-dahan



============
Bridge:
============
Guitar1: ( bagsak lang po ulit... )
Guitar2: ( tahimik ka lang po d2... )
Am                 G 
   Di ako sanay sa biglaan
Am		       D	
   Unti - unti na lang sanang nawala


==================================================================================
PIANO( di ko na po to alam.. ) gawin lang po ung sa chorus pero mahina ung guitar2
==================================================================================


============
Bridge:
============
Guitar1: ( bagsak lang po ulit... )
Guitar2: ( tahimik ka po ulit... )
Am                 G 
   Di ako sanay sa biglaan
Am		       D	
   Unti - unti na lang sanang nawala
					    	

============
Chorus:
============	
	G				Gsus    C9	
Nabigla lang, di ko man lamang nalaman na mawawala
	G				Gsus	     C9
Nabigla lang, di ko man lamang naisip na idahan - dahan

============
Outro:
============

Nabigla lang( kay bilis, bat umalis )
Nabigla lang( kay bilis, nakakamiss )

PIANO( gawin lang po ung chorus tapos bagsak... )


Pasensya na po sa Gsus di ko po kc alam itatawag dun... hehehe
kung may komento o ideya, mag iwan lang po kyo ng mensahe sa aking E-mail...
Salamat po sa pagbabasa... sana nagustuhan po ninyo...(Forsakens of Valhala)





Comments


Popular 6 Cycle Mind tabs & chords
Gaya Ng Noon Chords
Tunay 1 Chords
Walang Hanggan Chords
Dinamayan 1 Tabs
Pa Ba Tabs
Umaasa Tabs
Upside Down Tabs
Upside Downt Tabs
Alagaan Mo Siya Ukulele
Kwentong Barbero Ukulele


Song lyrics



↑ Back to top | Tablatures and chords are parodies/interpretations of the original songs. You may use it for private study, scholarship, research or language learning purposes only
© 2014 AZChords.com Contact us | Privacy policy | DMCA | Add/correct tabs | Request tabs | Top 50 tabs