» » »

Biglaan Tabs (ver.5)

Artists:  A B C D E F G H I J K L M N O P Q R S T U V W X Y Z # 

Biglaan Tabs (ver.5)

6 Cycle Mind
Rating:
0/5 (0 votes)

Hard to play? Try these video lessons and learn fast.
                
intro:

guitar1:
|--3------3------3----|
|--3------3------3----|
|--0------0------0----|
|--0------0------2----|
|--2------0------3----|
|--3------2-----------|

guitar2:
|------10----10-------10---10--------10---10-------|
|--------10----10-------10---10--------10---10-----|
|----------0-----0--------0----0----0----0----0----|
|-----9---------------------------10---------------|
|--10---------------9------------------------------|
|--------------------------------------------------|

verse:

guitar1: (4x)
|-------------------------------------------------------------|
|-------3-----3--------3-----3--------3-----0-1-0-----------3-|
|---0-2---0-2------0-2---0-2------0-2---0-2-------0-2-0-0-2---|
|-------------------------------------------------------------|
|-------------------------------3-----------------------------|
|--3-------------2--------------------------------------------|

guitar2: (ccngit pag naka 2 ulit na ung guitar1)
|--3------3------3----|
|--3------3------3----|
|--0------0------0----|
|--0------0------2----|
|--2------0------3----|
|--3------2-----------|

ref:3x

guitar1:      (guitar2)
|--2-2/3--3--(2-3-2-3-2)------|
|--3-3----3-------------------|
|--2-2----0-------------------|
|--0-0----2-------------------|
|---------3-------------------|
|-----------------------------|

Chorus:

guitar1:                guitar2:
|--3------3------3---|---------------------------------------------|
|--3------3------3---|--7/8-7-8-7-8-7-7/8-7-8-7-8-7----------------|
|--0------2------0---|------------------------------7-5--7/9-7-----|
|--0------0------2---|----------------------------------5------5-7-|
|--2------0------3---|---------------------------------------------|
|--3------2----------|---------------------------------------------|

then...
                 
|------0--3-----|---
|-----1---3-----|---
|----2----0-----|---
|---2-----0-----|---
|--0------2-----|---
|---------3-----|---


|------0--2------------------|
|-----1---3------------------|
|----2----2------------------|
|---2-----0------------------|
|--0-------------------------|
|----------------------------|

then...

guitar1:                guitar2:
|--3------3------3---|---------------------------------------------|
|--3------3------3---|--7/8-7-8-7-8-7-7/8-7-8-7-8-7----------------|
|--0------2------0---|------------------------------7-5--7/9-7-----|
|--0------0------2---|----------------------------------5------5-7-|
|--2------0------3---|---------------------------------------------|
|--3------2----------|---------------------------------------------|

verse2:

same as verse1...

refrain, chorus, piano solo... paulit ulit lng...

hi dixie!!! reply ka naman.. haha
hi din sa mga kabatch ko wakek..
            
Hard to play? Try these video lessons and learn fast. | Correct




comments powered by Disqus
↑ Back to top | Tablatures and chords are parodies/interpretations of the original songs. You may use it for private study, scholarship, research or language learning purposes only