>
 >
Alapaap 1

Alapaap 1 Guitar Tabs

6 Cycle Mind - Alapaap 1 chords, tabs, tablatures, lyrics

Guitar lessons | Add/correct | Request | Top 50 tabs Artists:  A B C D E F G H I J K L M N O P Q R S T U V W X Y Z 0-9

Alapaap 1 Guitar Tabs – 6 Cycle Mind

CD, Sheet music, Poster

Do you like Alapaap 1? Share with your friends now
Bass TabsChordsChords v2TabsTabs v2Tabs v3Ukulele
Alapaap by 6cyclemind

Kapa-Kapa ko lng to guyz.

1st part bass~~~~~

|---------------------------|
|--7-6-4-6-6h7-4------------|
|---------------------------|2x          <------Continue while singing 
|---------------------------|
|---------------------------|
|---------------------------|
  
    May isang umaga na tayo'y magsasama 
|---------------------------|
|--7-6-4-6-6h7-4------------|
|---------------------------|6x 
|---------------------------|
|---------------------------|
|---------------------------|

   Hayan at halina Sa 
|--7-6-4-6h7-4--------------|
|---------------------------|
|---------------------------|4x
|---------------------------|
|---------------------------|
|---------------------------|
    Alapaap, Oh anung 
|---------------------------|
|--7-6-4-6-6h7-4------------|
|---------------------------|9x 
|---------------------------|
|---------------------------|
|---------------------------|

sarap?
Em7

Intro: Guitar1 & Guitar 2
       F#-G#m-Bbm-B 2x

Guitar 1
  F#            G#m       Bbm-B      
   Hanggang sa dulo ng mundo
  F#        G#m           Bbm-B      
   Hanggang maubos ang ubo

(D2 pasok na ang guitar 2 parehas ang chords sa Guitar 1)
  F#         G#m          Bbm-B      
   Hanggang gumulong ang luha
  F#         G#m          Bbm-B      
   Hanggang mahulog ang tala

Chorus: 
F#                    G#m 
 Masdan mo ang aking mata
Bbm           B      
 Di mo ba nakikita
F#           G#m             Bbm       B
 Ako ngayo’y lumilipad at nasa langit na
 C#             B(pause)    
 Gusto mo ba’ng     sumama?
Guitar 2:
|--------------------------------|
|----7(8x)-9(8x)-11(8x)-12(8x)---|
|--------------------------------|
|--------------------------------|
|--------------------------------|
|--------------------------------|

Verse 2 (Guitar 2 Do Chord F# isang strum lang pababa)
  F#            G#m          Bbm       B      
 Hindi mo na kailangan ang magtago’t mahiya
  F#            G#m          Bbm       B(pause)
 Hindi mo na kailangan ang humanap ng iba
Guitar 2
     F#           G#m         Bbm             B
e|---2-------------------------------------------------------|
B|---2---7777777--7/9-99999999-9/11-11111111-11/12-12121212--|
G|---3-------------------------------------------------------|
D|---4-------------------------------------------------------|
A|---4-------------------------------------------------------|
E|---2-------------------------------------------------------|
   Kalimutan lang muna  Ang    lahat   ng      problema

       F#        G#m         Bbm             B
e|---------------------------------------------------------|
B|---7777777----7/9-99999999-9/11-11111111-11/12-12121212--|
G|---------------------------------------------------------|
D|---------------------------------------------------------|
A|---------------------------------------------------------|
E|---------------------------------------------------------|
    Huminga ka ng malalim at tayo’y  lalarga  na
 
        C#      B
e|--------------------------|
B|--1414141414-12(pause)----|
G|--------------------------|
D|--------------------------|
A|--------------------------|
E|--------------------------|
    Handa na ba’ng gumala?

Adlib
Guitar1 E-F#-B-G#m-E-F# Break
Guitar2
Solo
|--------------------------------------------------------------|
|------------------------5h7-5-4-------------------------------|
|--------------8-6----6-----------7-5--------------------------|
|--------6h7--------9------------------8-6---------------------|
|---/7-9------------------------------------9------------------|
|--------------------------------------------------------------|


|--------------------------------------------------------------|
|--------------------------------------------------------------|
|--------------------------------------------------------------|
|-----------7h9---------9h11-----------------------------------|
|----7-7h9------9-9h11-----------------------------------------|
|--------------------------------------------------------------|

Guitar1 & Guitar2 Do Chords pattern: G#m-C-C#-Eb 2x

Papapparapapa Papparapapa Papparapapapa          2x

Guitar1 & guitar2 Do chords B-Bbm-B-Bbm-B-G#m-C#
 
Parararara Hohohoho

hohoho hohoho

Verse 3 
F#            G#m       Bbm      
  Ang daming bawal sa mundo
             B             F#
(Ang daming bawal sa mundo)

         G#m       Bbm      
  Sinasakal nila tayo
          B            F#
 (Sinasakal nila tayo)

(palm mute ung ginagawa ko sa parting 2)

     F#       G#m      Bbm     B
e|----------------------------------------|
B|----------------------------------------|
G|--------------------3-33-3---4-44-4-----|
D|--4-44-4---6-66-6---3-33-3---4-44-4-----|
A|--4-44-4---6-66-6---1-11-1---2-22-2-----|
E|--2-22-2---4-44-4-----------------------|
     Buksan ang puso at isipan

     F#       G#m      Bbm     B
e|----------------------------------------|
B|----------------------------------------|
G|--------------------3-33-3---4-44-4-----|
D|--4-44-4---6-66-6---3-33-3---4-44-4-----|
A|--4-44-4---6-66-6---1-11-1---2-22-2-----|
E|--2-22-2---4-44-4-----------------------|
     Paliparin ang kamalayan

Repeat Chorus except Last word(
           B     C#
(Gusto mo bang)
           B     
(Gusto mo bang)
(Repeat 7x)
 


 Then Intro


~~~~~~~~~~~~~~~~~~~~~~~~~~~~~~The end~~~~~~~~~~~~~~~~~~~~~~~~~~~~~~~~~~
Madali lng po yan. kayang kaya nyu yan!

Hi po pala sa mga taga Palawan jan! mga rakista tayo mga tol! \m/





Comments


Popular 6 Cycle Mind tabs & chords
Sandalan Bass Tabs
Buhay Chords
Gaya Ng Noon Chords
In Between Days Chords
Kasalanan Chords
Nalilito Chords
Touch Chords
Trip Tabs
Gusto Na Kita Ukulele
Sige Ukulele


Song lyrics



↑ Back to top | Tablatures and chords are parodies/interpretations of the original songs. You may use it for private study, scholarship, research or language learning purposes only
© 2014 AZChords.com Contact us | Privacy policy | DMCA | Add/correct tabs | Request tabs | Top 50 tabs