» » »

Alapaap Tabs (ver.2)

Artists:  A B C D E F G H I J K L M N O P Q R S T U V W X Y Z # 

Alapaap Tabs (ver.2)

6 Cycle Mind
Rating:
0/5 (0 votes)

Hard to play? Try these video lessons and learn fast.
                

Standard Tuning

/ = Slide
p = Pull off
h = Hammer
m = Palm mute
x = dead pick


Guitar 1 Clean
Guitar 2 Distortion

Note:
Pakinggan nio na lang po ung timings ng Kanta!
Mas madali po kung sasabayan nio
Senxa Medyo magulo ung pagkakagawa..
Pakinggan na lng nio ang Tamang Timing,
Anjan na naman, hehehe kau na bahala

Pls. Rate!!

Chords Used:

    F#  G#m    Bbm        B     C#  E   G# 
e|--2----4----1----6---2----7---4---0---4------|
B|--2----4----2----6---4----7---6---0---4------|
G|--3----4----3-or-6---4-or-8---6---1---5------|
D|--4----6----3----8---4----9---6---2---6------|
A|--4----6----1----8---2----9---4---2---6------|
E|--2----4----x----6---x----7---x---0---4------|

Intro 1
4x ung Bass at Guitar 1 sa Intro 
sa pang 3rd na ulit papasok ung Guitar 2

E2 ung Bass Tab ng Intro 
(pakinggan nio na lng ulit kung kelan lilipat)

    F#                     BM7    
G|---------------------|---------------------|
D|---------------------|--------8h9p8--------|
A|------4—8h9p8--4-----|------9—------9------|
E|--2-2----------------|--7-7----------------|

Guitar 1
    F#
e|--------------------|
B|------2-----2-------|
G|----3-----3---------|
D|--4-----4-----------|
A|--------------------|
E|--------------------|

Guitar 2
    F#
e|-----------------------------|
B|--6/7-4h6—6h7p6--6/7-—4-h-6--|
G|-----------------------------|
D|-----------------------------|
A|-----------------------------|
E|-----------------------------|

   May isang umaga na tayo’y magsasama


Guitar 1
    BM7                   F#
e|-------2-----2-----|-------------------|
B|-----4-----4-------|-------2-----2-----|
G|---3-----3---------|-----3-----3-------|
D|-------------------|---4-----4---------|
A|-------------------|-------------------|
E|-------------------|-------------------|

Guitar 2
    BM7                            F#
e|--6/7-4h6—6h7p6--6/7-—4-h-6--|------------------------------|
B|-----------------------------|---6/7-4h6—6h7p6--6/7-—4-h-6--|
G|-----------------------------|------------------------------|
D|-----------------------------|------------------------------|
A|-----------------------------|------------------------------|
E|-----------------------------|------------------------------|
   Haya  ...at   halina  ..sa    ..al..apaap


Guitar 1
    F#                    EM7  
e|--------------------|----x----|
B|------2-----2-------|----0----|
G|----3-----3---------|----1/---|
D|--4-----4-----------|----1/---|
A|--------------------|----2/---|
E|--------------------|----0----|

Guitar 2
    F#
e|--------------------------------------|
B|--6/7-4h6—6h7p6--6/7-—4-h-6------5b~--|
G|--------------------------------------|
D|--------------------------------------|
A|--------------------------------------|
E|--------------------------------------|

  ..O     ..anong          ...sarap

Do Chords F#-G#m-Bbm-B both Guitar 1 and Guitar 2

Verse 1 (Guitar 2 Do Chord F# isang strum lang pababa)

Guitar 1
  F#            G#m       Bbm-B      
   Hanggang sa dulo ng mundo
  F#        G#m           Bbm-B      
   Hanggang maubos ang ubo

(D2 pasok na ang guitar 2 parehas ang chords sa Guitar 1)
  F#         G#m          Bbm-B      
   Hanggang gumulong ang luha
  F#         G#m          Bbm-B      
   Hanggang mahulog ang tala

Chorus: 
F#                    G#m 
 Masdan mo ang aking mata
Bbm           B      
 Di mo ba nakikita
F#           G#m             Bbm       B
 Ako ngayo’y lumilipad at nasa langit na
 C#             B(pause)    
 Gusto mo ba’ng     sumama?

Verse 2 (Guitar 2 Do Chord F# isang strum lang pababa)
  F#            G#m          Bbm       B      
 Hindi mo na kailangan ang magtago’t mahiya
  F#            G#m          Bbm       B(pause)
 Hindi mo na kailangan ang humanap ng iba

(2loy padin Chords ng Guitar 1)
Guitar 2
     F#           G#m         Bbm             B
e|---2-------------------------------------------------------|
B|---2---7777777--7/9-99999999-9/11-11111111-11/12-12121212--|
G|---3-------------------------------------------------------|
D|---4-------------------------------------------------------|
A|---4-------------------------------------------------------|
E|---2-------------------------------------------------------|
   Kalimutan lang muna  Ang    lahat   ng      problema

       F#        G#m         Bbm             B
e|---------------------------------------------------------|
B|---7777777----7/9-99999999-9/11-11111111-11/12-12121212--|
G|---------------------------------------------------------|
D|---------------------------------------------------------|
A|---------------------------------------------------------|
E|---------------------------------------------------------|
    Huminga ka ng malalim at tayo’y  lalarga  na
 
        C#      B
e|--------------------------|
B|--1414141414-12(pause)----|
G|--------------------------|
D|--------------------------|
A|--------------------------|
E|--------------------------|
    Handa na ba’ng gumala?

Adlib:
Guitar 1 do Chords
  E-F#-B-G#m-E-F#-
  G#-Cm-C#-Eb-;(2x)
  Pa pa pa..
  B-Bbm-;(2x) B-G#-C#
  C# break

Guitar 2
      E          F#           B             G#m
e|-------------------------------------------------|
B|---------------------------5/7--5-4--------------|
G|--------------6/8--6-44/6-----------6-4--4-------|
D|---------77/9------------------------------7p6---|
A|---4/7-7-----------------------------------------|
E|-------------------------------------------------|

      E          F#           G#       Cm     C#    D#
e|----------------------------------------------------------------|
B|----------------------------------------------------------------|
G|----------------------------13-1313--5--55--6-66--8-x-8-x-8-----|
D|---------7h9-------9h11-----x--x-x---x--xx--x-xx--x-x-x-x-x-----|
A|---6/7-7------7/9-9---------11-1111--3--33--4-44--6-x-6-x-6-----|
E|----------------------------------------------------------------|
                                     Pa.. pa.. pa.. pa.. 

     G#       Cm     C#    D#        B     Bbm    B       Bbm
e|----------------------------------------------------------------|
B|----------------------------------------------------------------|
G|---13-1313--5--55--6-66--8-x-8-x-8/4-44-4-3-33-3-4-44-4—3-33-3--|
D|---x--x-x---x--xx--x-xx--x-x-x-x-x-4-44-4-3-13-3-4-44-4-3-33-3--|
A|---11-1111--3--33--4-44--6-x-6-x-6/2-22-2-1-11-1-2-22-2-1-11-1--|
E|----------------------------------------------------------------|
     Pa.. pa.. pa.. pa.. 

     B     G#    C#      C#
e|-----------------------------------------------|
B|--4-4-4-------6-6-6-6-6-6-6-6------------------|
G|--4-4-4-5-5-6-6-6-6-6-6-6-6-6-(Break)----------|
D|--4-4-4-6-6-6-6-6-6-6-6-6-6-6------------------|
A|--2-2-2-6-6-6-4-4-4-4-4-4-4-4------------------|
E|--------4-4-4----------------------------------|

Verse 3 
F#            G#m       Bbm      
  Ang daming bawal sa mundo
             B             F#
(Ang daming bawal sa mundo)

         G#m       Bbm      
  Sinasakal nila tayo
          B            F#
 (Sinasakal nila tayo)

(palm mute ung ginagawa ko sa parting 2)

     F#       G#m      Bbm     B
e|----------------------------------------|
B|----------------------------------------|
G|--------------------3-33-3---4-44-4-----|
D|--4-44-4---6-66-6---3-33-3---4-44-4-----|
A|--4-44-4---6-66-6---1-11-1---2-22-2-----|
E|--2-22-2---4-44-4-----------------------|
     Buksan ang puso at isipan

     F#       G#m      Bbm     B
e|----------------------------------------|
B|----------------------------------------|
G|--------------------3-33-3---4-44-4-----|
D|--4-44-4---6-66-6---3-33-3---4-44-4-----|
A|--4-44-4---6-66-6---1-11-1---2-22-2-----|
E|--2-22-2---4-44-4-----------------------|
     Paliparin ang kamalayan

Repeat Chorus except Last word(
           B     C#
(Gusto mo bang)
           B     
(Gusto mo bang)
(Repeat 7x)

Coda:
       Intro
Sumama

    F#                  
G|---------------------|
D|---------------------|
A|------4—8h9p8--4-----|
E|--2-2----------------|

Guitar 1
    F#
e|--------------------|
B|------2-----2-------|
G|----3-----3---------|
D|--4-----4-----------|
A|--------------------|
E|--------------------|

Guitar 2
    F#
e|-----------------------------||   |---------------|
B|--6/7-4h6—6h7p6--6/7-—4-h-6--||4x |---------------|
G|-----------------------------||   |---11b12~------|
D|-----------------------------||   |---------------|
A|-----------------------------||   |---------------|
E|-----------------------------||   |---------------|

End..
Sensia na kung magulo, pakinggan nio na lng mabuti ung kanta,
makukuha din yan.. hehehe!
Helow sa Mga tga Batangas!
Astig OPM Bands.. Support
Bibabati qo nga pla ang mga Tga El-K! at Sphere Vox Band, Rocks.
            
Hard to play? Try these video lessons and learn fast. | Correct




comments powered by Disqus
↑ Back to top | Tablatures and chords are parodies/interpretations of the original songs. You may use it for private study, scholarship, research or language learning purposes only