» » »

Aaminin Tabs (ver.2)

Artists:  A B C D E F G H I J K L M N O P Q R S T U V W X Y Z # 

Aaminin Tabs (ver.2)

6 Cycle Mind
Rating:
0/5 (0 votes)

Hard to play? Try these video lessons and learn fast.
                -------------------------------------------------------------------------------
                             SONG NAME -aaminin
-------------------------------------------------------------------------------

Tuning:

intro

gtr 1
              11x
e|------9----10----12----10-|-9----10----9----10-----------|
B|---10---10----10----10----|---10----10---10--------------|
G|--------------------------|------------------------------|
D|--------------------------|------------------------------|
A|--------------------------|------------------------------|
E|--------------------------|------------------------------|
gtr 2
do chord pattern
D D/C#m Bm A

e|-0-----0-----0-----0-------------------|
B|-2-----2-----3-----2-------------------|
G|-3-----3-----4-----2-------------------|
D|-0-----0-----4-----2-------------------|
A|-------4-----2-----0-------------------|
E|---------------------------------------|


************************************

| /   slide up
| \   slide down
| h   hammer-on
| p   pull-off
| ~   vibrato
| +   harmonic
| x   Mute note
| b   Bend
| pb  Pre-bend
| br  Bend release
| pbr Pre-bend release
| brb Bend release bend

************************************
            
Hard to play? Try these video lessons and learn fast. | Correct




comments powered by Disqus
↑ Back to top | Tablatures and chords are parodies/interpretations of the original songs. You may use it for private study, scholarship, research or language learning purposes only