» » »

4 Years And 9 Months Tabs (ver.1)

Artists:  A B C D E F G H I J K L M N O P Q R S T U V W X Y Z # 

4 Years And 9 Months Tabs (ver.1)

6 Cycle Mind
Rating:
0/5 (0 votes)

Hard to play? Try these video lessons and learn fast.
                (Intro)
Song - 4 years and 9 months
Band - 6 cycle mind
Album - Panorama
Track No. - 1
Elapse time - 0:37
Tuning - Standard

/*Guys e2 nagawan ko na ng plucking 2 senxa na sa una kung gaw kung chords lang e2 tama na 2...*/

e--------3------3-|------0----|
B------3------3---|------1----|
G-----------------|------0----|
D-----------------|------2----|
A----2------------|-3----3----|
E--3--------------|-----------|
Sino ang nagsabing di ka maiiwanan

e--------3------3-|------0----|
B------3------3---|------1----|
G-----------------|------0----|
D-----------------|------2----|
A----2------------|-3----3----|
E--3--------------|-----------|
Sino ang nagsabing di ka malilimutan

e--------3------3-|------0----|
B------3------3---|------1----|
G-----------------|------0----|
D-----------------|------2----|
A----2------------|-3----3----|
E--3--------------|-----------|
Sino ang nagsabi di ba wala?

e--------2------2-|------0----|
B------3------3---|------1----|
G-----------------|------2----|
D----4------------|------2----|
A--2--------------|-0---------|
E-----------------|-----------|
Kundi ang pag-ibig mong naniwala

e--------2------2-|-------0----|
B------3------3---|-------1----|
G-----------------|-------2----|
D----4------------|---2---2----|
A--2--------------|-0----------|
E-----------------|------------|
Kundi ang pag-ibig kong naniwala

/*Thats all lang guys enjoy... ^^*/
            
Hard to play? Try these video lessons and learn fast. | Correct




comments powered by Disqus
↑ Back to top | Tablatures and chords are parodies/interpretations of the original songs. You may use it for private study, scholarship, research or language learning purposes only