>
 >
Torn

Torn Bass Tabs

69th Parallel - Torn chords, tabs, tablatures, lyrics

Guitar lessons | Add/correct | Request | Top 50 tabs Artists:  A B C D E F G H I J K L M N O P Q R S T U V W X Y Z 0-9

Torn Bass Tabs – 69th Parallel

CD, Sheet music, Poster

Do you like Torn? Share with your friends now
Bass Tabs
Tuning: BEADG


Verse	x2
G|----------------------------------------------------------|
D|----------------------------------------------------------|
A|-5--5-55-0-2--2-22-0h4h5-7--7-77p5------------------------|
E|----------------------------------7p5-3--3-33-3h5-3h5-3h5-|
B|----------------------------------------------------------|

G|-----------------------------------7-7h9-11-12--12-121212h14-|
D|--------------------------------7h9-9------------------------|
A|-5--5-55-0-2--2-22-0h4h5-7--7-77-----------------------------|
E|-------------------------------------------------------------|
B|-------------------------------------------------------------|


Pre Chorus
G|------------------------------------|
D|------------------2--2-22-0-7--7-77-|
A|--------5-0--0-00-------------------|
E|-3--3-33----------------------------|
B|------------------------------------|


Chorus	
G|-----4-4-4\2---------------2-2-2-----7-----6-|
D|---4-4-4-4\2-----5-5-5---2-2-2-2---7-7---6-6-|
A|-2-------------5-5-5-5-0---------5-----4-----|
E|-------------3-------------------------------|
B|---------------------------------------------|	x2
(Pluck the single notes with thumb and double notes with thumb and finger)


Verse	x2
G|----------------------------------------------------------|
D|----------------------------------------------------------|
A|-5--5-55-0-2--2-22-0h4h5-7--7-77p5------------------------|
E|----------------------------------7p5-3--3-33-3h5-3h5-3h5-|
B|----------------------------------------------------------|

G|-----------------------------------7-7h9-11-12--12-121212h14-|
D|--------------------------------7h9-9------------------------|
A|-5--5-55-0-2--2-22-0h4h5-7--7-77-----------------------------|
E|-------------------------------------------------------------|
B|-------------------------------------------------------------|


Pre Chorus
G|------------------------------------|
D|------------------2--2-22-0-7--7-77-|
A|--------5-0--0-00-------------------|
E|-3--3-33----------------------------|
B|------------------------------------|


Chorus	
G|-----4-4-4\2---------------2-2-2-----7-----6-|
D|---4-4-4-4\2-----5-5-5---2-2-2-2---7-7---6-6-|
A|-2-------------5-5-5-5-0---------5-----4-----|
E|-------------3-------------------------------|
B|---------------------------------------------|	x2


End of 2nd Chorus
G|-----5-----4---------------------------------|
D|---5-5---4-4-----5-5-----7-7-----5-5-----7-7-|
A|-3-----2-------5-5-5---7-7-7---5-5-5---7-7-7-|
E|-------------3-------5-------3-------5-------|
B|---------------------------------------------|


Bridge	
G|---------------------------------------------------|
D|---------------------------------------------------|
A|---------------------------------------------------|
E|------5---------5------------3--------------2------|
B|-3---------3---------3--1---------1----0---------0-|	x4


Chorus	
G|-----4-4-4\2---------------2-2-2-----7-----6-|
D|---4-4-4-4\2-----5-5-5---2-2-2-2---7-7---6-6-|
A|-2-------------5-5-5-5-0---------5-----4-----|
E|-------------3-------------------------------|
B|---------------------------------------------|	x4


End
G|-7----6----4h6----7-|
D|------------------7-|
A|------------------5-|
E|--------------------|
B|--------------------|





Comments


Popular 69th Parallel tabs & chords
Any Other Way Bass Tabs
Changing Bass Tabs
Cling Bass Tabs
Left Behind Bass Tabs
Memories Bass Tabs
Sweet Releif Bass Tabs
Taste Bass Tabs


Song lyrics



↑ Back to top | Tablatures and chords are parodies/interpretations of the original songs. You may use it for private study, scholarship, research or language learning purposes only
© 2014 AZChords.com Contact us | Privacy policy | DMCA | Add/correct tabs | Request tabs | Top 50 tabs