» » »

69th Parallel, Taste Bass tabs (ver.1)

Artists:  A B C D E F G H I J K L M N O P Q R S T U V W X Y Z # 

Taste Bass tabs (ver.1)

69th Parallel Tabs
 Rating:
4/5 (4 votes)
Taste lessons Tabs too difficult? Try these video lessons and learn fast
                Tuning: EADG


Verse
G|-----------------2h4-2-|-----------------2------|
D|-------2-2h4--2h4---4--|-------2-2h4--2h4-4p2---|
A|----2h4-4---22---------|----2h4-4---22-------4--|
E|--22-------------------|--22--------------------|
    TTT  PTP  TTP  P  PP    TTT  PTP  TTP  PP  T

G|-----------------2h4-2-|-----------------2-4-6--|
D|-------2-2h4--2h4---4--|-------2-2h4--2h4-------|
A|----2h4-4---22---------|----2h4-4---22----------|
E|--22-------------------|--22--------------------|
    TTT  PTP  TTP  P  PP    TTT  PTP  TTP  P P P


Chorus
G|--------------------------------------|
D|--------------------------------------|
A|----------------------7~7~9~9~12~12~--|
E|--2~2~5~5~7~7~8~8~9~9~----------------|

G|--------------------------------------|
D|----------------------7~7~9~9~12~12~--|
A|--2~2~5~5~7~7~8~8~9~9~----------------|
E|--------------------------------------|	x2


Verse
G|-----------------2h4-2-|-----------------2------|
D|-------2-2h4--2h4---4--|-------2-2h4--2h4-4p2---|
A|----2h4-4---22---------|----2h4-4---22-------4--|
E|--22-------------------|--22--------------------|
    TTT  PTP  TTP  P  PP    TTT  PTP  TTP  PP  T

G|-----------------2h4-2-|-----------------2-4-6--|
D|-------2-2h4--2h4---4--|-------2-2h4--2h4-------|
A|----2h4-4---22---------|----2h4-4---22----------|
E|--22-------------------|--22--------------------|
    TTT  PTP  TTP  P  PP    TTT  PTP  TTP  P P P


Pre Bridge  Pt1
G|--5---4---9---12---5---4-------5---4---9---12---5---4-------|
D|---------------------------2r---------------------------2r--|
A|------------------------------------------------------------|
E|------------------------------------------------------------|
    P   P   P   P    P   P   T   P   P   P   P    P   P   T


Pre Bridge  Pt2
G|--5x(17)-14x(16)-9x(21)-12x(24)-5x(17)-14x(16)-9x(21)----|
D|------------------------------------------------------2--|
A|---------------------------------------------------------|
E|------------------------------------------------------0--|

Bridge
G|---5----4----9-----12--------------5----4----9--------|
D|-------------------------------------------------2-2--|
A|--3-33\2-22/7-77/10--1010\9\7\5\4\3-33\2-22/7-77------|
E|------------------------------------------------0-----|	x3
    TPTT TPTT TPTT T P T T  T T T T TPTT TPTT TPTTTP P


Post Bridge
G|----------------------------------|
D|----------------------------------|
A|----------2r--------------2r------|
E|--2r--------------2r--------------|	x3


Chorus
G|--------------------------------------|
D|--------------------------------------|
A|----------------------7~7~9~9~12~12~--|
E|--2~2~5~5~7~7~8~8~9~9~----------------|

G|--------------------------------------|
D|----------------------7~7~9~9~12~12~--|
A|--2~2~5~5~7~7~8~8~9~9~----------------|
E|--------------------------------------|	x2


End
G|--------|
D|---4-4--|
A|--------|
E|--2-----|
    TP P
            
Submit corrections

comments powered by Disqus
↑ Back to top | 69th Parallel Bass for Taste. Lyrics for acoustic guitar and electric guitar. Tablatures and chords are parodies/interpretations of the original songs. You may use it for private study, scholarship, research or language learning purposes only