>
 >
Sweet Releif

Sweet Releif Bass Tabs

69th Parallel - Sweet Releif chords, tabs, tablatures, lyrics

Guitar lessons | Add/correct | Request | Top 50 tabs Artists:  A B C D E F G H I J K L M N O P Q R S T U V W X Y Z 0-9

Sweet Releif Bass Tabs – 69th Parallel

CD, Sheet music, Poster

Do you like Sweet Releif? Share with your friends now
Bass Tabs
Tuning: BEADG 

Verse
G|-----------------------------------------------|
D|-----------------------------------------------|
A|-----------------------------------------------|
E|-----------------------------------------------|
B|-15\3---3------8---8---------3---3------8---8--|


  Bass Fill    Verse
G|-----------|--------------------------------------------|
D|--7-5p4-2--|--------------------------------------------|
A|-----------|--------------------------------------------|
E|-----------|--------------------------------------------|
B|-----------|-3---3-5--7-8---8-7--5----3---3-5--7-8---8--|


Verse Transition to Chorus
G|--------------------|
D|--------------------|
A|--------------------|
E|-12\0---5--5-5-5----|
B|--------------------|


Chorus
G|---7-7-7-7-7-7-7---2-2-2-2-2-2-2-4-4-4-4-4-4-4-------------------------|
D|--7-7-7-7-7-7-7---2-2-2-2-2-2-2-4-4-4-4-4-4-4-4--5-5-5-5-5-5-5-7-5p4-2-|
A|-5---------------0-------------0----------------5-5-5-5-5-5-5----------|
E|-----------------------------------------------3-----------------------|
B|-----------------------------------------------------------------------|

G|-------------------2-2-2-2-2-2-2----------------------------------------|
D|------------------2-2-2-2-2-2-2--------------------5-5-5-5-5-5-5-7-5p4-2|
A|---5-5-5-5-5-5-5-0----------------2-2-2-2-2-2-2---5-5-5-5-5-5-5---------|
E|--5-5-5-5-5-5-5------------------2-2-2-2-2-2-2---3----------------------|
B|-3------------------------------0---------------------------------------|


Verse
G|-----------------------------------------------|
D|-----------------------------------------------|
A|-----------------------------------------------|
E|-----------------------------------------------|
B|-15\3---3------8---8---------3---3------8---8--|


  Bass Fill    Verse
G|-----------|--------------------------------------------|
D|--7-5p4-2--|--------------------------------------------|
A|-----------|--------------------------------------------|
E|-----------|--------------------------------------------|
B|-----------|-3---3-5--7-8---8-7--5----3---3-5--7-8---8--|


Verse Transition to Chorus
G|--------------------|
D|--------------------|
A|--------------------|
E|-12\0---5--5-5-5----|
B|--------------------|


Chorus
G|---7-7-7-7-7-7-7---2-2-2-2-2-2-2-4-4-4-4-4-4-4-------------------------|
D|--7-7-7-7-7-7-7---2-2-2-2-2-2-2-4-4-4-4-4-4-4-4--5-5-5-5-5-5-5-7-5p4-2-|
A|-5---------------0-------------0----------------5-5-5-5-5-5-5----------|
E|-----------------------------------------------3-----------------------|
B|-----------------------------------------------------------------------|

G|-------------------2-2-2-2-2-2-2----------------------------------------|
D|------------------2-2-2-2-2-2-2--------------------5-5-5-5-5-5-5-7-5p4-2|
A|---5-5-5-5-5-5-5-0----------------2-2-2-2-2-2-2---5-5-5-5-5-5-5---------|
E|--5-5-5-5-5-5-5------------------2-2-2-2-2-2-2---3----------------------|
B|-3------------------------------0---------------------------------------|


Solo	x3
G|---7-7-7-7-7-7-7-----2-2-2-2-2-2-2---4-4-4-4-4-4-4------------------|
D|--7-7-7-7-7-7-7-754-2-2-2-2-2-2-2---4-4-4-4-4-4-4-45--5-5-5-5-5-5-5-|
A|-5-----------------0-------------012-----------------5-5-5-5-5-5-5--|
E|----------------------------------------------------3---------------|
B|--------------------------------------------------------------------|


Verse (no drums)
G|---------------5h7--------14p12---------5h7p5--------|
D|-7-5p4-2-0---0------5---5--------0---0--------7---5--|
A|-----------------------------------------------------|
E|-----------------------------------------------------|
B|-----------------------------------------------------|


  Bass Fill    Verse (no drums)
G|-----------|--------5h7--------14p12---------5h7---------|
D|--7-5p4-2--|--0---0------5---5---------0---0------5---5--|
A|-----------|---------------------------------------------|
E|-----------|---------------------------------------------|
B|-----------|---------------------------------------------|


Verse Transition to Chorus (drums back in)
G|-14p12--------------------------------|
D|------14p12---------------------------|
A|-----------14p12----------------------|
E|----------------14p12\0---5--5-5-5----|
B|--------------------------------------|


Chorus
G|---7-7-7-7-7-7-7---2-2-2-2-2-2-2-4-4-4-4-4-4-4-------------------------|
D|--7-7-7-7-7-7-7---2-2-2-2-2-2-2-4-4-4-4-4-4-4-4--5-5-5-5-5-5-5-7-5p4-2-|
A|-5---------------0-------------0----------------5-5-5-5-5-5-5----------|
E|-----------------------------------------------3-----------------------|
B|-----------------------------------------------------------------------|

G|-------------------2-2-2-2-2-2-2----------------------------------------|
D|------------------2-2-2-2-2-2-2--------------------5-5-5-5-5-5-5-7-5p4-2|
A|---5-5-5-5-5-5-5-0----------------2-2-2-2-2-2-2---5-5-5-5-5-5-5---------|
E|--5-5-5-5-5-5-5------------------2-2-2-2-2-2-2---3----------------------|
B|-3------------------------------0---------------------------------------|


Last Chorus (bass only)
G|---7-7-7-7-7-7-7-----2-2-2-2-2-2-2---4-4-4-4-4-4-4------------------|
D|--7-7-7-7-7-7-7-754-2-2-2-2-2-2-2---4-4-4-4-4-4-4-45--5-5-5-5-5-5-5-|
A|-5-----------------0-------------012-----------------5-5-5-5-5-5-5--|
E|----------------------------------------------------3---------------|
B|--------------------------------------------------------------------|


End
G|-------------|
D|-7-5p4-2-----|
A|-------------|
E|-------------|
B|---------3r--|





Comments


Popular 69th Parallel tabs & chords
Any Other Way Bass Tabs
Changing Bass Tabs
Cling Bass Tabs
Left Behind Bass Tabs
Memories Bass Tabs
Taste Bass Tabs
Torn Bass Tabs


Song lyrics



↑ Back to top | Tablatures and chords are parodies/interpretations of the original songs. You may use it for private study, scholarship, research or language learning purposes only
© 2014 AZChords.com Contact us | Privacy policy | DMCA | Add/correct tabs | Request tabs | Top 50 tabs