» » »

69th Parallel, Memories Bass tabs (ver.1)

Artists:  A B C D E F G H I J K L M N O P Q R S T U V W X Y Z # 

Memories Bass tabs (ver.1)

69th Parallel Tabs
 Rating:
4/5 (4 votes)
Memories lessons Tabs too difficult? Try these video lessons and learn fast
                Tuning: BEADG 

Intro
G|-------------------------------|
D|-------------------------------|
A|-------------------------------|
E|-2--------3--------2--------3--|
B|-------------------------------|


Verse
G|-------------------------------------------------
D|-------------------------------------------------
A|-2--x--2-2-x-------------2--x--2-2-x-------------
E|-------------3--x--3-3-x-------------3--x--3-3-x-
B|-------------------------------------------------

G|------------------------------------------------------
D|------------------------------------------------------
A|-5--x--5-5p3-------------3h5--x--5-5p3----------------
E|------------5p3--x--3-3h5-------------5p3-33-33-3-333-
B|------------------------------------------------------

G|-------------------------------------------------
D|-------------------------------------------------
A|-2--x--2-2-x-------------2--x--2-2-x-------------
E|-------------3--x--3-3-x-------------3--x--3-3-x-
B|-------------------------------------------------

G|------------------------------------------------------
D|------------------------------------------------------
A|-5--x--5-5p3------------------------------------------
E|------------5p3--x--3-3p1p0-----------1p3-33-33-3-333-
B|---------------------------3--x--3-3h5----------------

Chorus
G|-------------------------|
D|-------------------------|
A|-------------------------|
E|---------23-33----3h5-55-|
B|-0-000023-----2333-------|x2

Verse
G|-------------------------------------------------
D|-------------------------------------------------
A|-2--x--2-2-x-------------2--x--2-2-x-------------
E|-------------3--x--3-3-x-------------3--x--3-3-x-
B|-------------------------------------------------

G|------------------------------------------------------
D|------------------------------------------------------
A|-5--x--5-5p3-------------3h5--x--5-5p3----------------
E|------------5p3--x--3-3h5-------------5p3-33-33-3-333-
B|------------------------------------------------------

G|-------------------------------------------------
D|-------------------------------------------------
A|-2--x--2-2-x-------------2--x--2-2-x-------------
E|-------------3--x--3-3-x-------------3--x--3-3-x-
B|-------------------------------------------------

G|------------------------------------------------------
D|------------------------------------------------------
A|-5--x--5-5p3------------------------------------------
E|------------5p3--x--3-3p1p0-----------1p3-33-33-3-333-
B|---------------------------3--x--3-3h5----------------

Chorus
G|-------------------------|
D|-------------------------|
A|-------------------------|
E|---------23-33----3h5-55-|
B|-0-000023-----2333-------|x2

Bridge
G|------------------------------------------|
D|------------------------------------------|
A|------------------------------------------|
E|---------------------3--x--x-x------------|
B|-0--x--x-x-1--x--x-x-----------3--x--x-x--|	x4

Play Intro and repeat until fade ou
            
Submit corrections

comments powered by Disqus
↑ Back to top | 69th Parallel Bass for Memories. Lyrics for acoustic guitar and electric guitar. Tablatures and chords are parodies/interpretations of the original songs. You may use it for private study, scholarship, research or language learning purposes only