» » »

Left Behind Bass tabs (ver.1)

Artists:  A B C D E F G H I J K L M N O P Q R S T U V W X Y Z # 

Left Behind Bass tabs (ver.1)

69th Parallel
Rating:
0/5 (0 votes)

Hard to play? Try these video lessons and learn fast.
                Tuning: EADG

Bass Doesn’t come in until the end of the first chorus.

Bass Starts
G|----------|
D|----------|
A|--3///10--|
E|----------|

Verse 
G|------------------------------------------------------------------
D|---5-3-2----5-3-2----5-3-2----5-3-2----5-3-2----5-3-2----5-3-2----
A|------------------------------------------------------------------
E|-3--------0--------1--------2--------3--------0--------1--------2-

---------------------|
-5-3-2---------------|
-------5-3-2---------|
-------------5-3-2/--|

Chorus
G|-------------------------------------------------|
D|--------------------------------23---------------|
A|-----------3h55555555-0122222222--33333333///10--|
E|--333333335--------------------------------------|       x2

Bridge
G|--------------------|
D|--------------------|
A|------3-------5-----|
E|--3-------3---------|   x8

Chorus
G|-------------------------------------------------|
D|--------------------------------23---------------|
A|-----------3h55555555-0122222222--33333333///10--|
E|--333333335--------------------------------------|   x2
            
Hard to play? Try these video lessons and learn fast. | Correct




comments powered by Disqus
↑ Back to top | Tablatures and chords are parodies/interpretations of the original songs. You may use it for private study, scholarship, research or language learning purposes only