» » »

69th Parallel, Changing Bass tabs (ver.1)

Artists:  A B C D E F G H I J K L M N O P Q R S T U V W X Y Z # 

Changing Bass tabs (ver.1)

69th Parallel Tabs
 Rating:
4/5 (4 votes)
Changing lessons Tabs too difficult? Try these video lessons and learn fast
                Tuning: EADG

Verse
G|-----------------------------7h9p7-----------------
D|--10--10-10-10h12p10p9-7--7-7-----9p7--------------
A|-------------------------------------7h8--8-10p12--
E|---------------------------------------------------

G|---------------------------------------
D|--10--10-10h12--12-12p10---------------
A|------------------------12p10-10-10h12-
E|---------------------------------------

G|-----------------------------7h9p7-----------------
D|--10--10-10-10h12p10p9-7--7-7-----9p7--------------
A|-------------------------------------7h8--8-10p12--
E|---------------------------------------------------

G|---------------------------------------|
D|--10--10-10h12--12-12-12-14--14-14-14--|
A|---------------------------------------|
E|---------------------------------------|

Chorus
G|-------12h1414141414-14-1414141414-14-14-14--
D|--12h14--------------------------------------
A|---------------------------------------------
E|---------------------------------------------

G|-------1212121212-12-12121212-12-12-12--
D|--12h14---------------------------------
A|----------------------------------------
E|----------------------------------------

G|----------------------------------------
D|--0h10h1212121212-12-12121212-12-12-12--
A|----------------------------------------
E|----------------------------------------

G|----------------------------------------15----------------|
D|-14h1515151515-15-1515151515-15-15-15-17--17-15-14-12-10--|
A|----------------------------------------------------------|
E|----------------------------------------------------------|	x2

Verse	
Chorus

Bridge
G|-9-9-99-99-99-10-10-1010-1010-10-
D|---------------------------------
A|---------------------------------
E|---------------------------------	X2

G|-7-7-77-77-77-9-9-99-99-99-7-7-77-77-77-9-9-99-99-99-10h12-|
D|-----------------------------------------------------------|
A|-----------------------------------------------------------|
E|-----------------------------------------------------------|

Chorus
G|-------12h1414141414-14-1414141414-14-14-14--
D|--12h14--------------------------------------
A|---------------------------------------------
E|---------------------------------------------

G|-------1212121212-12-12121212-12-12-12--
D|--12h14---------------------------------
A|----------------------------------------
E|----------------------------------------

G|----------------------------------------
D|--0h10h1212121212-12-12121212-12-12-12--
A|----------------------------------------
E|----------------------------------------

G|----------------------------------------15------
D|-14h1515151515-15-1515151515-15-15-15-17--17-15-
A|------------------------------------------------
E|------------------------------------------------	x2

Last Chorus
G|--------------------------------------------
D|--171717171717-17-17h19h21p19p17-17-17-17---
A|--------------------------------------------
E|--------------------------------------------

G|-------------------------------------------
D|---17p1515151515-15-15h17p151515-15-15-15--
A|-------------------------------------------
E|-------------------------------------------

G|----------------------------------------
D|--0h10h1212121212-12-12121212-12-12-12--
A|----------------------------------------
E|----------------------------------------

G|----------------------------------------15-------------
D|-14h1515151515-15-1515151515-15-15-15-17--17-15-14-12--
A|-------------------------------------------------------
E|-------------------------------------------------------	x2
            
Submit corrections

comments powered by Disqus
↑ Back to top | 69th Parallel Bass for Changing. Lyrics for acoustic guitar and electric guitar. Tablatures and chords are parodies/interpretations of the original songs. You may use it for private study, scholarship, research or language learning purposes only