>
 >
Any Other Way

Any Other Way Bass Tabs

69th Parallel - Any Other Way chords, tabs, tablatures, lyrics

Guitar lessons | Add/correct | Request | Top 50 tabs Artists:  A B C D E F G H I J K L M N O P Q R S T U V W X Y Z 0-9

Any Other Way Bass Tabs – 69th Parallel

CD, Sheet music, Poster

Do you like Any Other Way? Share with your friends now
Bass Tabs
Tuning: Regular Tuning (EADG)

Intro Pt1
G|-------------------------------------------------------|
D|-----------5h7---------3h5---------1h3-------------0h2-|
A|--555p0h555---333p0h333---111p0h111---000-0-00-0-00----|
E|-------------------------------------------------------| x2
 
Intro Pt2
G|-------------------------------------------|
D|-------------------------------------------|
A|--55--------33--------11--------00----1h3--|
E|-------------------------------------------|	x2

Intro Pt3
G|------5h7p5------------3h5p3-----------1h3p1------------020-------|
D|---5h7-----7p5------3h5-----5p3------1h3-----3p1------02---2p0----|
A|-55-----------7p5\33-----------5p3\11-----------3p1\00--------2p0-|
E|------------------------------------------------------------------| x2

Verse
G|-------------------------------------------------------|
D|-----------5h7---------3h5---------1h3-------------0h2-|
A|--555p0h555---333p0h333---111p0h111---000-0-00-0-00----|
E|-------------------------------------------------------|	x4

Pre Chorus
G|------------------------------------------------------------|
D|----------5h7---------7h9---------8h10---------------10h12--|
A|-555p0h555---777p0h777---888p0h888----101010p0h101010-------|
E|------------------------------------------------------------| x2
    
Chorus
G|-------5h7r—7p5---------------------5h7r-7p5----------------
D|----5h7--------7p5---------------5h7--------7p5-------------
A|-5h7--------------7-5h7h5h7h5h7h7--------------7-5h7h5h7h5h7
E|------------------------------------------------------------

G|-------5h7r—7p5---------------------5h7r--/101010/121212-|
D|----5h7--------7p5---------------5h7---------------------|
A|-5h7--------------7-5h7h5h7h5h7h7------------------------|
E|---------------------------------------------------------|

Post Chorus
G|------5h7p5------------3h5p3-----------1h3p1------------020-------|
D|---5h7-----7p5------3h5-----5p3------1h3-----3p1------02---2p0----|
A|-55-----------7p5\33-----------5p3\11-----------3p1\00--------2p0-|
E|------------------------------------------------------------------| x2

Verse
G|-------------------------------------------------------|
D|-----------5h7---------3h5---------1h3-------------0h2-|
A|--555p0h555---333p0h333---111p0h111---000-0-00-0-00----|
E|-------------------------------------------------------|	x4


Pre Chorus
G|-----------------------------------------------------|
D|---------5h7-------7h9-------8h10-------------10h12--|
A|--5550555---7770777---8880888----1010100101010-------|
E|-----------------------------------------------------| x2

Chorus
G|-------5h7r—7p5---------------------5h7r-7p5----------------
D|----5h7--------7p5---------------5h7--------7p5-------------
A|-5h7--------------7-5h7h5h7h5h7h7--------------7-5h7h5h7h5h7
E|------------------------------------------------------------

G|-------5h7r—7p5---------------------5h7r--/101010/121212-|
D|----5h7--------7p5---------------5h7---------------------|
A|-5h7--------------7-5h7h5h7h5h7h7------------------------|
E|---------------------------------------------------------|

Post Chorus
G|------5h7p5------------3h5p3-----------1h3p1------------020-------|
D|---5h7-----7p5------3h5-----5p3------1h3-----3p1------02---2p0----|
A|-55-----------7p5\33-----------5p3\11-----------3p1\00--------2p0-|
E|------------------------------------------------------------------| x2

Bass Solo 
G|-----------------------------------------------------|
D|----7-----5-----3-----2-------7-----5-----3-----2----|
A|--5---5-3---3-1---1-0---0--/5---5-3---3-1---1-0---0--|
E|-----------------------------------------------------|
    
Bass Solo Pt2
G|---------------------------------------------------------|
D|----7-----9-----10------12--------7-----9-----10-----12--|
A|--5---5-7---7-8----8-10----10--\5---5-7---7-8----8-10----|
E|---------------------------------------------------------|

Guitar Solo
G|----------------2h3-------------------------|
D|-0-00-00-3-33-33-------------------5--3--0--|
A|-------------------1-11-11-3-33-33----------|
E|--------------------------------------------|	x2

Chorus
G|-------5h7r—7p5---------------------5h7r-7p5----------------
D|----5h7--------7p5---------------5h7--------7p5-------------
A|-5h7--------------7-5h7h5h7h5h7h7--------------7-5h7h5h7h5h7
E|------------------------------------------------------------

G|-------5h7r—7p5---------------------5h7r--/101010/121212-|
D|----5h7--------7p5---------------5h7---------------------|
A|-5h7--------------7-5h7h5h7h5h7h7------------------------|
E|---------------------------------------------------------|

G|-12\\\3/7\5-5p4p3------------------------------|
D|-----------------5p4p3-------------------------|
A|----------------------5p4p3--------------17/15-|
E|---------------------------5p4p3~~~///15-------|





Comments


Popular 69th Parallel tabs & chords
Changing Bass Tabs
Cling Bass Tabs
Left Behind Bass Tabs
Memories Bass Tabs
Sweet Releif Bass Tabs
Taste Bass Tabs
Torn Bass Tabs


Song lyrics



↑ Back to top | Tablatures and chords are parodies/interpretations of the original songs. You may use it for private study, scholarship, research or language learning purposes only
© 2014 AZChords.com Contact us | Privacy policy | DMCA | Add/correct tabs | Request tabs | Top 50 tabs