>
 >
Wasting The Dawn 2

Wasting The Dawn 2 Bass Tabs

69 Eyes - Wasting The Dawn 2 chords, tabs, tablatures, lyrics

Guitar lessons | Add/correct | Request | Top 50 tabs Artists:  A B C D E F G H I J K L M N O P Q R S T U V W X Y Z 0-9

Wasting The Dawn 2 Bass Tabs – 69 Eyes

CD, Sheet music, Poster

Do you like Wasting The Dawn 2? Share with your friends now
Bass TabsBass Tabs v2ChordsChords v2TabsTabs v2Ukulele
#------------------------------------------------------------------------------##

                           WASTING THE DAWN (Bassline)
                           As recorded by The 69 Eyes
                     (From the 1999 Album WASTING THE DAWN)

Words and Music by The 69 Eyes

Gtr I (B E A D G) - 'Bass - Archzie'
Gtr II (E A D G B E) - 'Glockenspiel'

 Intro
  Q=108
 4/4
  Gtr I
  Wx5
|--------|
|--------|
|--------|
|--------|
|--------|


   Chorus
    $
    E E E E E E E E   E E E E E E E E   E E E E E E E E   E E E E E E E E
||------------------|-----------------|-----------------|-------------------||
||o-----------------|-----------------|-----------------|------------------o||
||------------------|-----------------|-----------------|-------------------||
||o-----------------|-----------------|-4-4-4-4-4-4-4-4-|-5-5-5-5----------o||
||--2-2-2-2-2-2-2-2-|-5-5-5-5-5-5-5-5-|-----------------|---------5-5-5-5---||


                              Verse
  W          +H.      S E.     E E E E E E E E   E E E E E E E E
|----------|---------------||------------------|-----------------|
|----------|---------------||o-----------------|-----------------|
|----------|---------------||------------------|-----------------|
|----------|---------------||o-----------------|-----------------|
|-2--------|-(2)------2S9--||--2-2-2-2-2-2-2-2-|-5-5-5-5-5-5-5-5-|


  E E E E E E E E   E E E E E E E E   E E E E E E E E
|-----------------|-----------------|-----------------|
|-----------------|-----------------|-----------------|
|-----------------|-----------------|-----------------|
|-5-5-5-5-5-5-5-5-|-----------------|-----------------|
|-----------------|-5-5-5-5-5-5-5-5-|-2-2-2-2-2-2-2-2-|


  E E E E E E E E   E E E E E E E E   E E E E E E E E
|-----------------|-----------------|------------------||
|-----------------|-----------------|-----------------o||
|-----------------|-----------------|------------------||
|-----------------|-5-5-5-5-5-5-5-5-|-----------------o||
|-5-5-5-5-5-5-5-5-|-----------------|-5-5-5-5-5-5-5-5--||


 Pre-Chorus
                                                                  D.S.
  E E E E E E E E   E E E E E E E E   E E E E E E E E   E E E E E E E E
|-----------------|-----------------|-----------------|-----------------|
|-----------------|-----------------|-----------------|-----------------|
|-----------------|-----------------|-----------------|-----------------|
|-4-4-4-4-4-4-4-4-|-----------------|-4-4-4-4-4-4-4-4-|-5-5-5-5-7-7-7-7-|
|-----------------|-5-5-5-5-5-5-5-5-|-----------------|-----------------|


   Chorus
    $$                                                        To Dbl. Coda
    E E E E E E E E   E E E E E E E E   E E E E E E E E   E E E E E E E E   4x
||------------------|-----------------|-----------------|-------------------||
||o-----------------|-----------------|-----------------|------------------o||
||------------------|-----------------|-----------------|-------------------||
||o-----------------|-----------------|-4-4-4-4-4-4-4-4-|-5-5-5-5----------o||
||--2-2-2-2-2-2-2-2-|-5-5-5-5-5-5-5-5-|-----------------|---------5-5-5-5---||


 Guitar Solo
  W          E E E E E E E E   E E E E E E E E   E E E E E E E E
|----------|-----------------|-----------------|-----------------|
|----------|-----------------|-----------------|-----------------|
|----------|-----------------|-----------------|-----------------|
|----------|-4-4-4-4-4-4-4-4-|-----------------|-4-4-4-4-4-4-4-4-|
|-2--------|-----------------|-5-5-5-5-5-5-5-5-|-----------------|


  E E E E E E E E   E E E E E E E E   E E E E E E E E   E E E E E E E E
|-----------------|-----------------|-----------------|-----------------|
|-----------------|-----------------|-----------------|-----------------|
|-----------------|-----------------|-----------------|-----------------|
|-5-5-5-5-7-7-7-7-|-4-4-4-4-4-4-4-4-|-----------------|-4-4-4-4-4-4-4-4-|
|-----------------|-----------------|-5-5-5-5-5-5-5-5-|-----------------|


                D.S.S. al Dbl. Coda
  E E E E E E E E   W          +W
|-----------------|----------|---------|
|-----------------|----------|---------|
|-----------------|----------|---------|
|-5-5-5-5-7-7-7-7-|----------|---------|
|-----------------|-2--------|-(2)-----|


 Interlude
  &&
  W          +W           +W           +W
|----------|------------|------------|--------|
|----------|------------|------------|--------|
|----------|------------|------------|--------|
|----------|------------|------------|--------|
|-2--------|-(2)--------|-(2)--------|-(2)----|


                                       1.             2.
     W           W           W          +W             +W
||-------------|-----------|----------|-------------||--------------------|
||o------------|-----------|----------|------------o||--------------------|
||-------------|-----------|----------|-------------||--------------------|
||o--5\--------|-----------|----------|------------o||--------------------|
||-------------|-5\--------|-2--------|-(2)---------||-(2)----------------|
|
|   Gtr II
|    W           W           W           W              Q    Q   Q   Q
||--24---------|-----------|----------|-------------||-24---24--24--24----|
||o------------|-----------|----------|------------o||--------------------|
||-------------|-----------|----------|-------------||--------------------|
||-------------|-----------|----------|-------------||--------------------|
||o------------|-----------|----------|------------o||--------------------|
||-------------|-----------|----------|-------------||--------------------|


   Out-Chorus
    E E E E E E E E   E E E E E E E E   E E E E E E E E   E E E E E E E E   4x
||------------------|-----------------|-----------------|-------------------||
||o-----------------|-----------------|-----------------|------------------o||
||------------------|-----------------|-----------------|-------------------||
||o-----------------|-----------------|-4-4-4-4-4-4-4-4-|-5-5-5-5----------o||
||--2-2-2-2-2-2-2-2-|-5-5-5-5-5-5-5-5-|-----------------|---------5-5-5-5---||


  W          +W           +W           +W
|----------|------------|------------|--------*|
|----------|------------|------------|--------*|
|----------|------------|------------|--------*|
|----------|------------|------------|--------*|
|-2--------|-(2)--------|-(2)--------|-(2)----*|


Duration Legend
---------------
W - whole; H - half; Q - quarter; E - 8th; S - 16th; T - 32nd; X - 64th; a - acciaccatura
+ - note tied to previous; . - note dotted; .. - note double dotted
Uncapitalized letters represent notes that are staccato (1/2 duration)
Irregular groupings are notated above the duration line
Duration letters will always appear directly above the note/fret number it represents the
duration for.  Duration letters with no fret number below them represent rests.  Multi-
bar rests are notated in the form Wxn, where n is the number of bars to rest for.  Low
melody durations appear below the staff

Tablature Legend
----------------
 h   - hammer-on
 p   - pull-off
 b   - bend
 pb  - pre-bend
 r   - bend release (if no number after the r, then release immediately)
 /\  - slide into or out of (from/to "nowhere")
 s   - legato slide
 S   - shift slide
  - natural harmonic
[n]  - artificial harmonic
n(n) - tapped harmonic
 ~   - vibrato
 tr  - trill
 T   - tap
 TP  - trem. picking
 PM  - palm muting
\n/  - tremolo bar dip; n = amount to dip
 \n  - tremolo bar down
 n/  - tremolo bar up
/n\  - tremolo bar inverted dip
 =   - hold bend; also acts as connecting device for hammers/pulls
 <>  - volume swell (louder/softer)
 x   - on rhythm slash represents muted slash
 o   - on rhythm slash represents single note slash

Misc Legend
-----------
 |  - bar
||  - double bar
||o - repeat start
o|| - repeat end
*|  - double bar (ending)
 :  - bar (freetime)
 $  - Segno
 &  - Coda
Tempo markers -  = BPM(8/16=s8/s16), where s8 = swing 8ths, s16 = swing 16ths





Comments


Popular 69 Eyes tabs & chords
Dance D'Amour Bass Tabs
Gothic Girl 1 Bass Tabs
Red Chords
Back In Blood Intro Tabs
D.I.D Tabs
Gothic Girl 1 Tabs
Shadow Of Your Love Intro Tabs
Wasting The Dawn Tabs
Borderline Ukulele
Chair Ukulele


Song lyrics



↑ Back to top | Tablatures and chords are parodies/interpretations of the original songs. You may use it for private study, scholarship, research or language learning purposes only
© 2014 AZChords.com Contact us | Privacy policy | DMCA | Add/correct tabs | Request tabs | Top 50 tabs