>
 >
Velvet Touch

Velvet Touch Bass Tabs

69 Eyes - Velvet Touch chords, tabs, tablatures, lyrics

Guitar lessons | Add/correct | Request | Top 50 tabs Artists:  A B C D E F G H I J K L M N O P Q R S T U V W X Y Z 0-9

Velvet Touch Bass Tabs – 69 Eyes

CD, Sheet music, Poster

Do you like Velvet Touch? Share with your friends now
Bass TabsTabsTabs v2
#------------------------------------------------------------------------------##

                             VELVET TOUCH (Bassline)
                           As recorded by The 69 Eyes
                        (From the 2000 Album BLESSED BE)

Words by Jyrki

Music by Bazie

Gtr I (Db Ab Db Gb) - 'Bass'
Gtr II (Db Ab Db Gb Bb Eb) - 'Bells'
Gtr III (Db Ab Db Gb) - 'Keyb'

   Intro
    Q=136
   4/4
    Gtr II
    W          W          W          +W      3x
||-----------|----------|----------|---------||
||o----------|----------|----------|--------o||
||-----------|----------|-2--------|-(2)-----||
||-----------|----------|-0--------|-(0)-----||
||o----------|----------|----------|--------o||
||-----------|----------|----------|---------||


    Gtr I
    W          +W           +W           +W
||-----------|------------|------------|---------||
||o----------|------------|------------|--------o||
||o-5--------|-(5)--------|-(5)--------|-(5)----o||
||-----------|------------|------------|---------||
|
|   Gtr II
|   W           W            W           +W
||-----------|------------|------------|---------||
||o----------|------------|------------|--------o||
||-----------|------------|--2---------|-(2)-----||
||-----------|------------|--0---------|-(0)-----||
||o----------|------------|------------|--------o||
||-----------|------------|------------|---------||


   Verse
    W          +W           W          +W
||-----------|------------|----------|--------|
||o----------|------------|----------|--------|
||o-5--------|-(5)--------|-5--------|-(5)----|
||-----------|------------|----------|--------|
|
|   W           W           W          +W
||-----------|------------|----------|--------|
||o----------|------------|----------|--------|
||-----------|------------|-2--------|-(2)----|
||-----------|------------|-0--------|-(0)----|
||o----------|------------|----------|--------|
||-----------|------------|----------|--------|


  W          +W           W           W
|----------|------------|----------|---------||
|----------|------------|----------|--------o||
|-5--------|-(5)--------|-0--------|--------o||
|----------|------------|----------|--3------||
|
| W           W           W          +W
|----------|------------|----------|---------||
|----------|------------|----------|--------o||
|----------|------------|-2--------|-(2)-----||
|----------|------------|-2--------|-(2)-----||
|----------|------------|----------|--------o||
|----------|------------|----------|---------||


  W          +W           +W           +Q.   Q  Q.
|----------|------------|------------|---------------||
|----------|------------|------------|---------------||
|----------|------------|------------|---------------||
|-0--------|-(0)--------|-(0)--------|-(0)-----------||


   Chorus Riff I
    Q  Q  Q.   E   Q  Q  E Q.     Q  Q  Q.   E   +Q   Q  E Q.
||---------------|--------------|--------------|------------------||
||o--------------|--------------|--------------|-----------------o||
||o--------------|--------------|--------------|-----------------o||
||--0--0-------0-|-0--0----0----|-8--8-------5-|-(5)--5----3------||


  W          +W
|----------|--------||
|----------|--------||
|----------|--------||
|-0--------|-(0)----||


   Verse
    E E E E E E E E   E E E E E E E E   E E E E E E E E   E E E E E E E E
||------------------|-----------------|-----------------|------------------|
||o-----------------|-----------------|-----------------|------------------|
||o-5-5-5-5-5-5-5-5-|-----------------|-5-5-5-5-5-5-5-5-|------------------|
||------------------|-8-8-8-8-8-8-8-8-|-----------------|-8-8-8-8-5-5-5-5--|


  E E E E E E E E   E E E E E E E E   E E E E E E E E   E E E E E E E E
|-----------------|-----------------|-----------------|------------------||
|-----------------|-----------------|-----------------|-----------------o||
|-5-5-5-5-5-5-5-5-|-----------------|-----------------|-----------------o||
|-----------------|-8-8-8-8-8-8-8-8-|-7-7-7-7-7-7-7-7-|-3-3-3-3-3-3-3-3--||


   Chorus Riff I
    Q  Q  Q.   E   Q  Q  E Q.     Q  Q  Q.   E   +Q   Q  E Q.
||---------------|--------------|--------------|------------------||
||o--------------|--------------|--------------|-----------------o||
||o--------------|--------------|--------------|-----------------o||
||--0--0-------0-|-0--0----0----|-8--8-------5-|-(5)--5----3------||


   Chorus Riff II
    E E E Q  E E E   Q  E E E Q.     E E E Q  E E E   Q  E E E Q.
||-----------------|---------------|----------------|-----------------||
||o----------------|---------------|----------------|----------------o||
||o----------------|---------------|----------------|----------------o||
||--0-0-0----0-0-0-|----0-0---0----|-8-8-8----8-8-5-|----5-5-5-3------||


  W          +W           +W           +W
|----------|------------|------------|--------||
|----------|------------|------------|--------||
|----------|------------|------------|--------||
|-0--------|-(0)--------|-(0)--------|-(0)----||


   Interlude
    W                 +W                  W                 W
||------------------|-------------------|-----------------|-------------------||
||o-----------------|-------------------|-----------------|------------------o||
||o-----------------|-------------------|-----------------|------------------o||
||--0---------------|-(0)---------------|-8---------------|-5-----------------||
|
|   Gtr III
|   E E E E E E E E    E  E E E E E E E   E E E E E E E E   E E E E E E E E
||------------------|-------------------|-----------------|-------------------||
||o-----------------|-------------------|-----------------|------------------o||
||o-5-5-5-5-5-5-5-5-|--5--5-5-5-5-5-5-5-|-5-5-5-5-5-5-5-5-|-5-5-5-5-5-5-5-5--o||
||------------------|-------------------|-----------------|-------------------||


  W                 +W                  W                 W
|-----------------|-------------------|-----------------|-----------------|
|-----------------|-------------------|-----------------|-----------------|
|-----------------|-------------------|-----------------|-----------------|
|-0---------------|-(0)---------------|-8---------------|-5---------------|
|
| E E E E E E E E    E  E E E E E E E   E E E E E E E E   E E E E E E E E
|-----------------|-------------------|-----------------|-----------------|
|-----------------|-------------------|-----------------|-----------------|
|-5-5-5-5-5-5-5-5-|--5--5-5-5-5-5-5-5-|-5-5-5-5-5-5-5-5-|-5-5-5-5-5-5-5-5-|
|-----------------|-------------------|-----------------|-----------------|


  W                 +W                  W                 W
|-----------------|-------------------|-----------------|-----------------|
|-----------------|-------------------|-----------------|-----------------|
|-----------------|-------------------|-----------------|-3---------------|
|-0---------------|-(0)---------------|-3---------------|-----------------|
|
| E E E E E E E E    E  E E E E E E E   E E E E E E E E   E E E E E E E E
|-----------------|-------------------|-----------------|-----------------|
|-----------------|-------------------|-----------------|-----------------|
|-5-5-5-5-5-5-5-5-|--5--5-5-5-5-5-5-5-|-----------------|-3-3-3-3-3-3-3-3-|
|-----------------|-------------------|-3-3-3-3-3-3-3-3-|-----------------|


  W                 +W                  W                 W
|-----------------|-------------------|-----------------|-----------------|
|-----------------|-------------------|-----------------|-----------------|
|-----------------|-------------------|-----------------|-----------------|
|-0---------------|-(0)---------------|-8---------------|-5---------------|
|
| E E E E E E E E    E  E E E E E E E   E E E E E E E E   E E E E E E E E
|-----------------|-------------------|-----------------|-----------------|
|-----------------|-------------------|-----------------|-----------------|
|-5-5-5-5-5-5-5-5-|--5--5-5-5-5-5-5-5-|-5-5-5-5-5-5-5-5-|-5-5-5-5-5-5-5-5-|
|-----------------|-------------------|-----------------|-----------------|


  W                 +W                  W                 W
|-----------------|-------------------|-----------------|-----------------||
|-----------------|-------------------|-----------------|-----------------||
|-----------------|-------------------|-----------------|-----------------||
|-0---------------|-(0)---------------|-8---------------|-5---------------||
|
| E E E E E E E E    E  E E E E E E E   E E E E E E E E   E E E E E E E E
|-----------------|-------------------|-----------------|-----------------||
|-----------------|-------------------|-----------------|-----------------||
|-5-5-5-5-5-5-5-5-|--5--5-5-5-5-5-5-5-|-----------------|-----------------||
|-----------------|-------------------|-8-8-8-8-8-8-8-8-|-5-5-5-5-5-5-5-5-||


   Chorus Riff II
    E E E Q   E E E   Q   E E E Q.       E E E Q   E E E   Q   E E E Q.       6x
||------------------|------------------|-----------------|--------------------||
||o-----------------|------------------|-----------------|-------------------o||
||o-----------------|------------------|-----------------|-------------------o||
||--0-0-0-----0-0-0-|-----0-0---0------|-8-8-8-----8-8-5-|-----5-5-5-3--------||
|
|   E E E E E E E E   E E E E E E  E E   E E E E E E E E   E E E E E E  E E   6x
||------------------|------------------|-----------------|--------------------||
||o-----------------|------------------|-----------------|-------------------o||
||o-5-5-5-5-5-5-5-5-|-5-5-5-5-5-5--5-5-|-5-5-5-5-5-5-5-5-|-5-5-5-5-5-5--5-5--o||
||------------------|------------------|-----------------|--------------------||


 Ending Theme
  E E E E E E E E   E E E E E E E E   E E E E E E E E   E E E E E E E E
|-----------------|-----------------|-----------------|-----------------|
|-----------------|-----------------|-----------------|-----------------|
|-----------------|-----------------|-----------------|-----------------|
|-8-8-8-8-8-8-8-8-|-5-5-5-5-5-5-5-5-|-8-8-8-8-8-8-8-8-|-5-5-5-5-5-5-5-5-|
|
| E E E E E E E E   E E E E E E E E   E E E E E E E E   E E E E E E E E
|-----------------|-----------------|-----------------|-----------------|
|-----------------|-----------------|-----------------|-----------------|
|-5-5-5-5-5-5-5-5-|-5-5-5-5-5-5-5-5-|-5-5-5-5-5-5-5-5-|-5-5-5-5-5-5-5-5-|
|-----------------|-----------------|-----------------|-----------------|


  E E E E E E E E   E E E E E E E E   W          +W
|-----------------|-----------------|----------|--------||
|-----------------|-----------------|----------|--------||
|-----------------|-----------------|----------|--------||
|-8-8-8-8-8-8-8-8-|-5-5-5-5-5-5-5-5-|-0--------|-(0)----||
|
| E E E E E E E E   E E E E E E E E   W          +W
|-----------------|-----------------|----------|--------||
|-----------------|-----------------|----------|--------||
|-5-5-5-5-5-5-5-5-|-5-5-5-5-5-5-5-5-|-5--------|-(5)----||
|-----------------|-----------------|----------|--------||


 Outro
                >
  +W           +W           +W           +W           Wx9
|------------|------------|------------|------------|--------*|
|------------|------------|------------|------------|--------*|
|------------|------------|------------|------------|--------*|
|-(0)--------|-(0)--------|-(0)--------|-(0)--------|--------*|


Duration Legend
---------------
W - whole; H - half; Q - quarter; E - 8th; S - 16th; T - 32nd; X - 64th; a - acciaccatura
+ - note tied to previous; . - note dotted; .. - note double dotted
Uncapitalized letters represent notes that are staccato (1/2 duration)
Irregular groupings are notated above the duration line
Duration letters will always appear directly above the note/fret number it represents the
duration for.  Duration letters with no fret number below them represent rests.  Multi-
bar rests are notated in the form Wxn, where n is the number of bars to rest for.  Low
melody durations appear below the staff

Tablature Legend
----------------
 h   - hammer-on
 p   - pull-off
 b   - bend
 pb  - pre-bend
 r   - bend release (if no number after the r, then release immediately)
 /\  - slide into or out of (from/to "nowhere")
 s   - legato slide
 S   - shift slide
  - natural harmonic
[n]  - artificial harmonic
n(n) - tapped harmonic
 ~   - vibrato
 tr  - trill
 T   - tap
 TP  - trem. picking
 PM  - palm muting
\n/  - tremolo bar dip; n = amount to dip
 \n  - tremolo bar down
 n/  - tremolo bar up
/n\  - tremolo bar inverted dip
 =   - hold bend; also acts as connecting device for hammers/pulls
 <>  - volume swell (louder/softer)
 x   - on rhythm slash represents muted slash
 o   - on rhythm slash represents single note slash

Misc Legend
-----------
 |  - bar
||  - double bar
||o - repeat start
o|| - repeat end
*|  - double bar (ending)
 :  - bar (freetime)
 $  - Segno
 &  - Coda
Tempo markers -  = BPM(8/16=s8/s16), where s8 = swing 8ths, s16 = swing 16ths





Comments


Popular 69 Eyes tabs & chords
Brandon Lee 1 Bass Tabs
Framed In Blood 1 Bass Tabs
Nothing On You Bass Tabs
Still Waters Run Deep Bass Tabs
Chair Chords
Angel On My Shoulder Tabs
Christina Death Tabs
Crashing High Tabs
Dance D Amour Intro Tabs
Ghost Tabs


Song lyrics



↑ Back to top | Tablatures and chords are parodies/interpretations of the original songs. You may use it for private study, scholarship, research or language learning purposes only
© 2014 AZChords.com Contact us | Privacy policy | DMCA | Add/correct tabs | Request tabs | Top 50 tabs