» » »

Velvet Touch Tabs (ver.1)

Artists:  A B C D E F G H I J K L M N O P Q R S T U V W X Y Z # 

Velvet Touch Tabs (ver.1)

69 Eyes
Rating:
0/5 (0 votes)

Tabs too difficult? Try these video lessons and learn fast.
                C: Clean
D: Distortion
P: Pinch
PP: Palm


Verse: play Clean

E --------------------|
B --------------------|
G --------------------|
D --------------------|
A ---2-----3----2-3-2-|
E 0-----0-----0-------|


Chorus: play distortion

E ---------------------------------------------------------------|
B ---------------------------------------------------------------|
G ---------------------------------------------------------------|
D ---------------------------------------------------------------|
A 2--2--0pp-2-0pp--2-2--0pp-0pp-0pp-0pp--3--3--0pp--3--0pp--2--2-|
E 0--0--0pp-0-0pp--0-0--0pp-0pp-0pp-0pp--2--2--0pp--2--0pp--3--3-|

Verse

Chorus

then for the bridge just play the verse

then again Chorus
            
Tabs too difficult? Try these video lessons and learn fast.


comments powered by Disqus
↑ Back to top | Tablatures and chords are parodies/interpretations of the original songs. You may use it for private study, scholarship, research or language learning purposes only