>
 >
Suspiria Snow White

Suspiria Snow White Guitar Tabs

69 Eyes - Suspiria Snow White chords, tabs, tablatures, lyrics

Guitar lessons | Add/correct | Request | Top 50 tabs Artists:  A B C D E F G H I J K L M N O P Q R S T U V W X Y Z 0-9

Suspiria Snow White Guitar Tabs – 69 Eyes

CD, Sheet music, Poster

Do you like Suspiria Snow White? Share with your friends now
Tabs
			     Suspiria Snow White - The 69 Eyes





Tuning: Drop Db ( Db Ab Db Gb Bb Eb )



   Intro. ( Heavy Distortion ) x 2


eb|-----------------------------------------------------------------|
Bb|-----------------------------------------------------------------|
Gb|---2p0-2p0---------------2p0-2p0---------3-2---------------------|
Db|------------0-1-1--1-0------------0-1-1--3-2---------------------|
Ab|-------------------1-0-------------------1-0---------------------|
Db|-0-----------------1-0-------------------------------------------|

 

   After the intro. do this before the verse...

eb|----------------------------------------|
Bb|----------------------------------------|
Gb|-7-7-7----12-12-12----------------------|
Db|-x-x-x-----x--x--x----------------------|
Ab|-5-5-5----10-10-10----------------------|
Db|----------------------------------------|




   Verse x 2 ( Heavy Distortion )

       . . . . . .      . . . . . .      . . . . . .      . . . . . .
eb|---------------------------------------------------------------------|
Bb|---------------------------------------------------------------------|
Gb|-2--2-2-2-2-2-2--------------------7--7-7-7-7-7-7---8--8-8-8-8-8-8---|
Db|-2--2-2-2-2-2-2---3--3-3-3-3-3-3---7--7-7-7-7-7-7---8--8-8-8-8-8-8---|
Ab|-0--0-0-0-0-0-0---3--3-3-3-3-3-3---5--5-5-5-5-5-5---6--6-6-6-6-6-6---|
Db|------------------3--3-3-3-3-3-3-------------------------------------|

       . . . . . .      . . . . . .      . . . . . .      . . . . . .
eb|---------------------------------------------------------------------|
Bb|---------------------------------------------------------------------|
Gb|-2--2-2-2-2-2-2------------------------------------------------------|
Db|-2--2-2-2-2-2-2---3--3-3-3-3-3-3---5--5-5-5-5-5-5---5--5-5-5-5-5-5---|
Ab|-0--0-0-0-0-0-0---3--3-3-3-3-3-3---5--5-5-5-5-5-5---5--5-5-5-5-5-5---|
Db|------------------3--3-3-3-3-3-3---5--5-5-5-5-5-5---5--5-5-5-5-5-5---|


  
   Pre-Chorus x 1 ( Heavy Distortion )


eb|----------------------------------------------------------|
Bb|----------------------------------------------------------|
Gb|-----2----------------------------------------------------|
Db|-3---2---3---5---5--5-5-5-5-5-5---------------------------|
Ab|-3---0---3---5---5--5-5-5-5-5-5---------------------------|
Db|-3-------3---5---5--5-5-5-5-5-5---------------------------|





   Chorus 


   Guitar I, Timo-Timo ( Heavy Distortion )

   Let all chords ring...

eb|------------------------------------------------------|
Bb|------------------------------------------------------|
Gb|-7----------------------------------------------------|
Db|-7--------8-----------5---------5---------------------|
Ab|-5--------8-----------5---------5---------------------|
Db|----------8-----------5---------3---------------------|

   Guitar II, Bazie ( Clean )

eb|-------------------------------------------------------|
Bb|---------------10-8------------------10-8--------------|
Gb|-------------7------10-------------7-------------------|
Db|-------------------------------------------------------|
Ab|-------------------------------------------------------|
Eb|-------------------------------------------------------|

   Guitar I

eb|-------------------------------------------------------|
Bb|-------------------------------------------------------|
Gb|-7------------------------------5----------------------|
Db|-7--------8-----------5---------5----------------------|
Ab|-5--------8-----------5---------3----------------------|
Db|----------8-----------5--------------------------------|

   Guitar II

eb|-----------------------------------------8--------------|
Bb|---------------10-8-------------------10----------------|
Gb|-------------7------10--------------7-------------------|
Db|--------------------------------------------------------|
Ab|--------------------------------------------------------|
Db|--------------------------------------------------------|



   Repeat Intro., Verse, Pre-Chorus, and Chorus


   
   Outro ( the same as the intro. ending with this... )

   
   Guitar I

eb|---------------------------------------------|
Bb|---------------------------------------------|
Gb|-7--7--7-7-7-7-7-8-9///----------------------|
Db|-x--x--x-x-x-x-x-x-x///----------------------|
Ab|-5--5--5-5-5-5-5-6-7///----------------------|
Db|---------------------------------------------|


   Guitar II

eb|---------------------------------------------|
Bb|---------------------------------------------|
Gb|---------------------------------------------|
Db|-5--5--5-5-5-5-5-6-7-------------------------|
Ab|-5--5--5-5-5-5-5-6-7-------------------------|
Db|-5--5--5-5-5-5-5-6-7-------------------------|



That's it!





Comments


Popular 69 Eyes tabs & chords
Brandon Lee 1 Bass Tabs
Nothing On You Bass Tabs
Feel Berlin Chords
Christina Death Tabs
Crashing High Tabs
Dead Girls Are Easy Tabs
Gothic Girl 1 Tabs
Hevioso Tabs
Wasting The Dawn (Intro) Tabs
Borderline Ukulele


Song lyrics



↑ Back to top | Tablatures and chords are parodies/interpretations of the original songs. You may use it for private study, scholarship, research or language learning purposes only
© 2014 AZChords.com Contact us | Privacy policy | DMCA | Add/correct tabs | Request tabs | Top 50 tabs