>
 >
Still Waters Run Deep

Still Waters Run Deep Guitar Tabs

69 Eyes - Still Waters Run Deep chords, tabs, tablatures, lyrics

Guitar lessons | Add/correct | Request | Top 50 tabs Artists:  A B C D E F G H I J K L M N O P Q R S T U V W X Y Z 0-9

Still Waters Run Deep Guitar Tabs – 69 Eyes

CD, Sheet music, Poster

Do you like Still Waters Run Deep? Share with your friends now
Bass TabsBass Tabs v2Tabs
#------------------------------------------------------------------------------##

                              STILL WATERS RUN DEEP
                           As recorded by The 69 Eyes
                        (From the 2002 Album PARIS KILLS)

Words by Jyrki

Music by Bazie

          D5                   F5                   A5                   G5
      0 0 0 x x x          3 3 3 x x x          7 7 7 x x x          5 5 5 x x x

      D5(type 2)               C5               A5(type 2)           G5(type 2)
      x 5 7 x x x          x 3 5 x x x          7 7 x x x x          5 5 x x x x

      F5(type 2)               E5               F5(type 3)
      3 3 x x x x          2 2 x x x x         x 8 10 x x x

Gtr I (Db Ab Db Gb Bb Eb) - 'Piano'
Gtr II (Db Ab Db Gb Bb Eb) - 'Timo Timo'
Gtr III (Db Ab Db Gb Bb Eb) - 'Piano II'
Gtr IV (Db Ab Db Gb Bb Eb) - 'Bazie'
Gtr V (Db Ab Db Gb Bb Eb) - 'Strings'

   Intro
    Q=124
    N.C.
   4/4
    Gtr I
    E E H    +E  E   E E H.        E E H    +E  E   +E  E H.
||-----------------|-------------|----------------|--------------||
||o---5-6----(6)-5-|---6-5-------|---3-5----(5)-5-|-(5)-3-8-----o||
||-----------------|-------------|----------------|--------------||
||--0--------------|-------------|----------------|--------------||
||o----------------|-------------|-0--------------|-------------o||
||-----------------|-3-----------|----------------|--5-----------||
    W                W             W                 W


  $
  D5                  F5
  Gtr II
  W                   W
  |                   |
  /                   /

  E E H       +E  E   E E  H.
|-------------------|-----------------|
|---5-6-------(6)-5-|---6--5----------|
|-------------------|-----------------|
|-0-----------------|-----------------|
|-------------------|-----------------|
|-------------------|-3---------------|
| W                   W
|
| Gtr IV
| Q   Q.   Q.         Q    Q.    Q.
|-------------------|-----------------|
|-----6----5--------|------6-----5----|
|-------------------|-5---(5)---(5)---|
|-7-----------------|-----------------|
|-5-----------------|-----------------|
|-7-----------------|-----------------|
|
| Gtr III
| Q   Q.   Q.         W
|-------------------|-----------------|
|-----6----5--------|-1---------------|
|-------------------|-----------------|
|-------------------|-----------------|
|-------------------|-----------------|
|-------------------|-----------------|


  A5                  G5
  W                   W
  |                   |
  /                   /

  E E H       +E  E   E E H.
|-------------------|-------------------------|
|---5-6-------(6)-5-|-----3-------------------|
|-------------------|---5---------------------|
|-------------------|-------------------------|
|-0-----------------|-------------------------|
|-------------------|-5-----------------------|
| W                   W
|
| Q   Q.   Q.         H       +E   E   E   E
|-------------------|-------------------------|
|-----6----5--------|-3-------(3)-(3)-(3)-(3)-|
|-------------------|-------------------------|
|-7-----------------|--------------5---5---5--|
|-7-----------------|--------------5---5---5--|
|-------------------|-------------------------|
|
| Q   Q.   Q.         E E H.
|-------------------|-------------------------|
|-----6----5--------|-3-1-3-------------------|
|-------------------|-------------------------|
|-------------------|-------------------------|
|-------------------|-------------------------|
|-------------------|-------------------------|


  D5                  F5                A5                  G5
  W                   W                 W                   W
  |                   |                 |                   |
  /                   /                 /                   /

  E E H       +E  E   E E  H.           E E H       +E  E   E E H.
|-------------------|-----------------|-------------------|-------------------||
|---5-6-------(6)-5-|---6--5----------|---5-6-------(6)-5-|-----3-------------||
|-------------------|-----------------|-------------------|---5---------------||
|-0-----------------|-----------------|-------------------|-------------------||
|-------------------|-----------------|-0-----------------|-------------------||
|-------------------|-3---------------|-------------------|-5-----------------||
| W                   W                 W                   W
|
| Q   Q.   Q.         Q    Q.    Q.     Q   Q.   Q.         H       +E  E E E
|-------------------|-----------------|-------------------|-------------------||
|-----6----5--------|------6-----5----|-----6----5--------|-3-------(3)-------||
|-------------------|-5---(5)---(5)---|-------------------|-------------------||
|-7-----------------|-----------------|-7-----------------|-------------5-5-5-||
|-5-----------------|-----------------|-7-----------------|-------------5-5-5-||
|-7-----------------|-----------------|-------------------|-------------------||
|
| Q   Q.   Q.         W                 Q   Q.   Q.         E E Q    H
|-------------------|-----------------|-------------------|-----3-------------||
|-----6----5--------|-1---------------|-----6----5--------|-------------------||
|-------------------|-----------------|-------------------|-7-5---------------||
|-------------------|-----------------|-------------------|-------------------||
|-------------------|-----------------|-------------------|-------------------||
|-------------------|-----------------|-------------------|-------------------||


   Verse
      D5                C5                  A5                G5    F5E5F5
    Gtrs II, IV
    E E E E E E E E   E E E E E E E E    E  E E E E E E E   E E E E E E Q
||------------------|-----------------|-------------------|------------------||
||o-----------------|-----------------|-------------------|-----------------o||
||------------------|-----------------|-------------------|------------------||
||--x-7---x-7---7-7-|-x-5---x-5---5-5-|-------------------|------------------||
||o-x-5---x-5---5-5-|-x-3---x-3---3-3-|--x--7---x-7---7-7-|-x-5---x-3-2-3---o||
||------------------|-----------------|--x--7---x-7---7-7-|-x-5---x-3-2-3----||
|
|   Gtr V
|   W                 W                 +W                  W
||------------------|-----------------|-------------------|------------------||
||o-6---------------|-5---------------|-(5)---------------|-3---------------o||
||------------------|-----------------|-------------------|------------------||
||------------------|-----------------|-------------------|------------------||
||o-----------------|-----------------|-------------------|-----------------o||
||------------------|-----------------|-------------------|------------------||


    D5                  F5                    A5                G5    F5E5F5
  E E E E E E E E    E   E E E  E E  E  E   E E E E E E E E   E E E E E E Q
|-----------------|-----------------------|-----------------|----------------|
|-----------------|-----------------------|-----------------|----------------|
|-----------------|-----------------------|-----------------|----------------|
|-x-7---x-7---7-7-|--x--10---x-10---10-10-|-----------------|----------------|
|-x-5---x-5---5-5-|--x---8---x--8----8--8-|-x-7---x-7---7-7-|-x-5---x-3-2-3--|
|-----------------|-----------------------|-x-7---x-7---7-7-|-x-5---x-3-2-3--|
|
| W                 +W                      W                 W
|-----------------|-----------------------|-----------------|----------------|
|-6---------------|-(6)-------------------|-5---------------|-3--------------|
|-----------------|-----------------------|-----------------|----------------|
|-----------------|-----------------------|-----------------|----------------|
|-----------------|-----------------------|-----------------|----------------|
|-----------------|-----------------------|-----------------|----------------|


    D5                C5                  A5                G5    F5E5F5
  E E E E E E E E   E E E E E E E E    E  E E E E E E E   E E E E E E Q
|-----------------|-----------------|-------------------|----------------||
|-----------------|-----------------|-------------------|----------------||
|-----------------|-----------------|-------------------|----------------||
|-x-7---x-7---7-7-|-x-5---x-5---5-5-|-------------------|----------------||
|-x-5---x-5---5-5-|-x-3---x-3---3-3-|--x--7---x-7---7-7-|-x-5---x-3-2-3--||
|-----------------|-----------------|--x--7---x-7---7-7-|-x-5---x-3-2-3--||
|
| W                 W                 +W                  W
|-----------------|-----------------|-------------------|----------------||
|-6---------------|-5---------------|-(5)---------------|-3--------------||
|-----------------|-----------------|-------------------|----------------||
|-----------------|-----------------|-------------------|----------------||
|-----------------|-----------------|-------------------|----------------||
|-----------------|-----------------|-------------------|----------------||


 Chorus
  D5                        F5
  Gtr II
   W                         W
   |                         |
   /                         /

  Gtr IV
   W                         Q     Q.        Q.
|-------------------------|---------------------------|
|-------------------------|---------------------------|
|-------------------------|---------------------------|
|--7----------------------|-10------------------------|
|--5----------------------|--8-----8---------7--------|
|-------------------------|---------------------------|
|
| Gtr I
|  E  E  E  E  E  E  E  E    E  E  E   E  E  E   E  E
|-10----10----12----13----|-------15------------15----|
|----10----10----10----10-|-13-10-----10-13-10-----13-|
|-------------------------|---------------------------|
|-------------------------|---------------------------|
|-------------------------|---------------------------|
|-------------------------|---------------------------|


  A5                    G5
   W                     W
   |                     |
   /                     /

   W                     Q    Q.      E  E E
|---------------------|----------------------|
|---------------------|----------------------|
|---------------------|----------------------|
|---------------------|-------5--------------|
|--7------------------|--5------------5--5-5-|
|--7------------------|----------------------|
|
|  E E  E E  E E  E E    E E  E  E  E E  E E
|---------------------|------15--------------|
|-10---10---12---13---|-12---------10---11---|
|----9----9----9----9-|----9-----9----9----9-|
|---------------------|----------------------|
|---------------------|----------------------|
|---------------------|----------------------|


  D5                        F5
   W                         W
   |                         |
   /                         /

   W                         Q     Q.        Q.
|-------------------------|---------------------------|
|-------------------------|---------------------------|
|-------------------------|---------------------------|
|--7----------------------|-10------------------------|
|--5----------------------|--8-----8---------7--------|
|-------------------------|---------------------------|
|
|  E  E  E  E  E  E  E  E    E  E  E   E  E  E   E  E
|-10----10----12----13----|-------15------------15----|
|----10----10----10----10-|-13-10-----10-13-10-----13-|
|-------------------------|---------------------------|
|-------------------------|---------------------------|
|-------------------------|---------------------------|
|-------------------------|---------------------------|


                                       D.S.
  A5                    G5
   W                     W
   |                     |
   /                     /

   W                     Q    Q.      E  E E
|---------------------|----------------------|
|---------------------|----------------------|
|---------------------|----------------------|
|---------------------|-------5--------------|
|--7------------------|--5------------5--5-5-|
|--7------------------|----------------------|
|
|  E E  E E  E E  E E    E E  E  E  E E  E E
|---------------------|----------------------|
|-10---10---12---13---|-12---10----12---10---|
|----9----9----9----9-|----9-----9----9----9-|
|---------------------|----------------------|
|---------------------|----------------------|
|---------------------|----------------------|


  D5                        F5
   W                         W
   |                         |
   /                         /

   W                         Q     Q.        Q.
|-------------------------|---------------------------|
|-------------------------|---------------------------|
|-------------------------|---------------------------|
|--7----------------------|-10------------------------|
|--5----------------------|--8-----8---------7--------|
|-------------------------|---------------------------|
|
|  E  E  E  E  E  E  E  E    E  E  E   E  E  E   E  E
|-10----10----12----13----|-------15------------15----|
|----10----10----10----10-|-13-10-----10-13-10-----13-|
|-------------------------|---------------------------|
|-------------------------|---------------------------|
|-------------------------|---------------------------|
|-------------------------|---------------------------|


  A5                    G5
   W                     W
   |                     |
   /                     /

   W                     Q    Q.      E  E E
|---------------------|----------------------|
|---------------------|----------------------|
|---------------------|----------------------|
|---------------------|-------5--------------|
|--7------------------|--5------------5--5-5-|
|--7------------------|----------------------|
|
|  E E  E E  E E  E E    E E  E  E  E E  E E
|---------------------|------15--------------|
|-10---10---12---13---|-12---------10---11---|
|----9----9----9----9-|----9-----9----9----9-|
|---------------------|----------------------|
|---------------------|----------------------|
|---------------------|----------------------|


  D5                           F5
   W                            W
   |                            |
   /                            /

   W                            Q     Q.          Q.
|----------------------------|-----------------------------|
|----------------------------|-----------------------------|
|----------------------------|-----------------------------|
|--7-------------------------|-10--------------------------|
|--5-------------------------|--8-----8-----------7--------|
|----------------------------|-----------------------------|
|
|  E   E  E  E  E  E   E   E    E  E  E   E   E   E   E  E
|-10-----10----12-----13-----|-------15--------------15----|
|-----10----10----10------10-|-13-10-----10--13--10-----13-|
|----------------------------|-----------------------------|
|----------------------------|-----------------------------|
|----------------------------|-----------------------------|
|----------------------------|-----------------------------|
|
| Gtr V
|  <                            <
|  H.                 +Q        H            +H
|-22-----------------(22)----|-20-----------(20)-----------|
|----------------------------|-----------------------------|
|----------------------------|-----------------------------|
|----------------------------|-----------------------------|
|----------------------------|-----------------------------|
|----------------------------|-----------------------------|


  A5                      G5
   W                       W
   |                       |
   /                       /

   W                       Q    Q.        E  E E
|-----------------------|------------------------||
|-----------------------|------------------------||
|-----------------------|------------------------||
|-----------------------|-------5----------------||
|--7--------------------|--5--------------5--5-5-||
|--7--------------------|------------------------||
|
|  E E  E E   E  E  E E    E E  E  E   E  E  E E
|-----------------------|------------------------||
|-10---10----12----13---|-12---10-----12----10---||
|----9----9------9----9-|----9-----9------9----9-||
|-----------------------|------------------------||
|-----------------------|------------------------||
|-----------------------|------------------------||
|
|  <                       <
|  H         +H            H          +H
|-17--------(17)--------|-15---------(15)--------||
|-----------------------|------------------------||
|-----------------------|------------------------||
|-----------------------|------------------------||
|-----------------------|------------------------||
|-----------------------|------------------------||


   Interlude
    N.C.
    Gtr I
     E   E  H     +E   E    E  E  H.
||------12-13----(13)-12-|----13-12-----------|
||o----------------------|--------------------|
||---7-------------------|--------------------|
||-----------------------|--------------------|
||o----------------------|--8-----------------|
||-----------------------|--------------------|
|    W                      W
|
|   Gtr V
|    <                      <
|    H.           +Q        H          +H
||--22-----------(22)----|-20---------(20)----|
||o----------------------|--------------------|
||-----------------------|--------------------|
||-----------------------|--------------------|
||o----------------------|--------------------|
||-----------------------|--------------------|


   E  E  H         +E   E    +E   E  H.
|----10-12--------(12)-12-|-(12)-10-15------------||
|-------------------------|----------------------o||
|-------------------------|-----------------------||
|--7----------------------|-----------------------||
|-------------------------|--10------------------o||
|-------------------------|-----------------------||
|  W                          W
|
|  <
|  H         +H               H           +H
|-17--------(17)----------|-----------------------||
|-------------------------|--20----------(20)----o||
|-------------------------|-----------------------||
|-------------------------|-----------------------||
|-------------------------|----------------------o||
|-------------------------|-----------------------||


  Gtr V
    W            +W            +W            +W
|--22---------|-(22)--------|-(22)--------|-(22)----||
|-(20)--------|-(20)--------|-(20)--------|-(20)----||
|-------------|-------------|-------------|---------||
|-------------|-------------|-------------|---------||
|-------------|-------------|-------------|---------||
|-------------|-------------|-------------|---------||


 Chorus
  D5                           F5
  Gtr II
   W                            W
   |                            |
   /                            /

  Gtr IV
   W                            Q     Q.          Q.
|----------------------------|-----------------------------|
|----------------------------|-----------------------------|
|----------------------------|-----------------------------|
|--7-------------------------|-10--------------------------|
|--5-------------------------|--8-----8-----------7--------|
|----------------------------|-----------------------------|
|
| Gtr I
|  E   E  E  E  E  E   E   E    E  E  E   E   E   E   E  E
|-10-----10----12-----13-----|-------15--------------15----|
|-----10----10----10------10-|-13-10-----10--13--10-----13-|
|----------------------------|-----------------------------|
|----------------------------|-----------------------------|
|----------------------------|-----------------------------|
|----------------------------|-----------------------------|
|
| Gtr V
|  <                            <
|  H.                 +Q        H            +H
|----------------------------|-----------------------------|
|-15-----------------(15)----|-13-----------(13)-----------|
|----------------------------|-----------------------------|
|----------------------------|-----------------------------|
|----------------------------|-----------------------------|
|----------------------------|-----------------------------|


  A5                      G5
   W                       W
   |                       |
   /                       /

   W                       Q    Q.       E  E E
|-----------------------|-----------------------|
|-----------------------|-----------------------|
|-----------------------|-----------------------|
|-----------------------|-------5---------------|
|--7--------------------|--5-------------5--5-5-|
|--7--------------------|-----------------------|
|
|  E E  E E   E  E  E E    E E  E  E  E  E  E E
|-----------------------|------15---------------|
|-10---10----12----13---|-12---------10----11---|
|----9----9------9----9-|----9-----9-----9----9-|
|-----------------------|-----------------------|
|-----------------------|-----------------------|
|-----------------------|-----------------------|
|
|  <                       <
|  H         +H            H         +H
|-----------------------|-----------------------|
|-10--------(10)--------|--8---------(8)--------|
|-----------------------|-----------------------|
|-----------------------|-----------------------|
|-----------------------|-----------------------|
|-----------------------|-----------------------|


  D5                           F5
   W                            W
   |                            |
   /                            /

   W                            Q     Q.          Q.
|----------------------------|-----------------------------|
|----------------------------|-----------------------------|
|----------------------------|-----------------------------|
|--7-------------------------|-10--------------------------|
|--5-------------------------|--8-----8-----------7--------|
|----------------------------|-----------------------------|
|
|  E   E  E  E  E  E   E   E    E  E  E   E   E   E   E  E
|-10-----10----12-----13-----|-------15--------------15----|
|-----10----10----10------10-|-13-10-----10--13--10-----13-|
|----------------------------|-----------------------------|
|----------------------------|-----------------------------|
|----------------------------|-----------------------------|
|----------------------------|-----------------------------|
|
|  <                            <
|  H.                 +Q        H            +H
|-22-----------------(22)----|-20-----------(20)-----------|
|----------------------------|-----------------------------|
|----------------------------|-----------------------------|
|----------------------------|-----------------------------|
|----------------------------|-----------------------------|
|----------------------------|-----------------------------|


  A5                      G5
   W                       W
   |                       |
   /                       /

   W                       Q    Q.        E  E E
|-----------------------|------------------------|
|-----------------------|------------------------|
|-----------------------|------------------------|
|-----------------------|-------5----------------|
|--7--------------------|--5--------------5--5-5-|
|--7--------------------|------------------------|
|
|  E E  E E   E  E  E E    E E  E  E   E  E  E E
|-----------------------|------------------------|
|-10---10----12----13---|-12---10-----12----10---|
|----9----9------9----9-|----9-----9------9----9-|
|-----------------------|------------------------|
|-----------------------|------------------------|
|-----------------------|------------------------|
|
|  <                       <
|  H         +H            H          +H
|-17--------(17)--------|-15---------(15)--------|
|-----------------------|------------------------|
|-----------------------|------------------------|
|-----------------------|------------------------|
|-----------------------|------------------------|
|-----------------------|------------------------|


  D5                           F5
   W                            W
   |                            |
   /                            /

   W                            Q     Q.          Q.
|----------------------------|-----------------------------|
|----------------------------|-----------------------------|
|----------------------------|-----------------------------|
|--7-------------------------|-10--------------------------|
|--5-------------------------|--8-----8-----------7--------|
|----------------------------|-----------------------------|
|
|  E   E  E  E  E  E   E   E    E  E  E   E   E   E   E  E
|-10-----10----12-----13-----|-------15--------------15----|
|-----10----10----10------10-|-13-10-----10--13--10-----13-|
|----------------------------|-----------------------------|
|----------------------------|-----------------------------|
|----------------------------|-----------------------------|
|----------------------------|-----------------------------|
|
|  <                            <
|  H.                 +Q        H            +H
|-22-----------------(22)----|-20-----------(20)-----------|
|----------------------------|-----------------------------|
|----------------------------|-----------------------------|
|----------------------------|-----------------------------|
|----------------------------|-----------------------------|
|----------------------------|-----------------------------|


  A5                      G5
   W                       W
   |                       |
   /                       /

   W                       Q    Q.        E  E E
|-----------------------|------------------------|
|-----------------------|------------------------|
|-----------------------|------------------------|
|-----------------------|-------5----------------|
|--7--------------------|--5--------------5--5-5-|
|--7--------------------|------------------------|
|
|  E E  E E   E  E  E E    E E  E  E   E  E  E E
|-----------------------|------15----------------|
|-10---10----12----13---|-12----------10----11---|
|----9----9------9----9-|----9-----9------9----9-|
|-----------------------|------------------------|
|-----------------------|------------------------|
|-----------------------|------------------------|
|
|  <                       <
|  H         +H            H          +H
|-17--------(17)--------|-15---------(15)--------|
|-----------------------|------------------------|
|-----------------------|------------------------|
|-----------------------|------------------------|
|-----------------------|------------------------|
|-----------------------|------------------------|


  D5                           F5
   W                            W
   |                            |
   /                            /

   W                            Q     Q.          Q.
|----------------------------|-----------------------------|
|----------------------------|-----------------------------|
|----------------------------|-----------------------------|
|--7-------------------------|-10--------------------------|
|--5-------------------------|--8-----8-----------7--------|
|----------------------------|-----------------------------|
|
|  E   E  E  E  E  E   E   E    E  E  E   E   E   E   E  E
|-10-----10----12-----13-----|-------15--------------15----|
|-----10----10----10------10-|-13-10-----10--13--10-----13-|
|----------------------------|-----------------------------|
|----------------------------|-----------------------------|
|----------------------------|-----------------------------|
|----------------------------|-----------------------------|
|
|  <                            <
|  H.                 +Q        H            +H
|-22-----------------(22)----|-20-----------(20)-----------|
|----------------------------|-----------------------------|
|----------------------------|-----------------------------|
|----------------------------|-----------------------------|
|----------------------------|-----------------------------|
|----------------------------|-----------------------------|


  A5                      G5
   W                       W
   |                       |
   /                       /

   W                       Q    Q.        E  E E
|-----------------------|------------------------|
|-----------------------|------------------------|
|-----------------------|------------------------|
|-----------------------|-------5----------------|
|--7--------------------|--5--------------5--5-5-|
|--7--------------------|------------------------|
|
|  E E  E E   E  E  E E    E E  E  E   E  E  E E
|-----------------------|------------------------|
|-10---10----12----13---|-12---10-----12----10---|
|----9----9------9----9-|----9-----9------9----9-|
|-----------------------|------------------------|
|-----------------------|------------------------|
|-----------------------|------------------------|
|
|  <                       <
|  H         +H            H          +H
|-17--------(17)--------|-15---------(15)--------|
|-----------------------|------------------------|
|-----------------------|------------------------|
|-----------------------|------------------------|
|-----------------------|------------------------|
|-----------------------|------------------------|


    D5                  F5
    W                   W
    |                   |
    /                   /

    Gtr I
    E E H       +E  E   E E  H.
||--------------------|-----------------|
||o---5-6-------(6)-5-|---6--5----------|
||--------------------|-----------------|
||--0-----------------|-----------------|
||o-------------------|-----------------|
||--------------------|-3---------------|
|   W                   W
|
|   Gtr IV
|   Q   Q.   Q.         Q    Q.    Q.
||--------------------|-----------------|
||o-----6----5--------|------6-----5----|
||--------------------|-5---(5)---(5)---|
||--7-----------------|-----------------|
||o-5-----------------|-----------------|
||--7-----------------|-----------------|
|
|   Gtr III
|   Q   Q.   Q.         W
||--------------------|-----------------|
||o-----6----5--------|-1---------------|
||--------------------|-----------------|
||--------------------|-----------------|
||o-------------------|-----------------|
||--------------------|-----------------|


  A5                  G5
  W                   W
  |                   |
  /                   /

  E E H       +E  E   E E H.
|-------------------|---------------------------||
|---5-6-------(6)-5-|-----3--------------------o||
|-------------------|---5-----------------------||
|-------------------|---------------------------||
|-0-----------------|--------------------------o||
|-------------------|-5-------------------------||
| W                   W
|
| Q   Q.   Q.         H       +E   E   E   E
|-------------------|---------------------------||
|-----6----5--------|-3-------(3)-(3)-(3)-(3)--o||
|-------------------|---------------------------||
|-7-----------------|--------------5---5---5----||
|-7-----------------|--------------5---5---5---o||
|-------------------|---------------------------||
|
| Q   Q.   Q.         E E H.
|-------------------|---------------------------||
|-----6----5--------|-3-1-3--------------------o||
|-------------------|---------------------------||
|-------------------|---------------------------||
|-------------------|--------------------------o||
|-------------------|---------------------------||


 Outro
  N.C.
    E    E    H.                           E   E   E  E   E  E E  E
|---------------------------------------|---------------------------|
|---------------------------------------|---------------------------|
|-------------7-------------------------|---------------------------|
|--------7------------------------------|-(5)-----(5)-----7----5----|
|---5-----------------------------------|-----(3)-----3------5----3-|
|---------------------------------------|---------------------------|
|
| Gtr III
|   E    E    E    E    E    E    E   E    E   E   Q     +Q.      E
|---------------------------------------|-17------------------------|
|-(15)------(15)------(15)-------15--18-|-----18--17----(17)-----17-|
|------(14)------(14)------(14)---------|---------------------------|
|---------------------------------------|---------------------------|
|---------------------------------------|---------------------------|
|---------------------------------------|---------------------------|
|
| Gtr V
|   <                                      <
|   H.                           +Q        H             +H
|--22---------------------------(22)----|-20------------(20)--------|
|---------------------------------------|---------------------------|
|---------------------------------------|---------------------------|
|---------------------------------------|---------------------------|
|---------------------------------------|---------------------------|
|---------------------------------------|---------------------------|


   E  E  E E   E  E  E  E    E  E  E E   E  E E E
|-------------------------|-----------------------|
|-------------------------|-----------------------|
|-------------------------|-----------------------|
|--7-----7-----9----10----|--5-----5-----7----8---|
|-----7----7------7-----7-|-----5----5------5---5-|
|-------------------------|-----------------------|
|
|  E  E  Q    +Q.       E    E  E  Q    +H
|-17----------------------|-15--------------------|
|----17-17---(17)------17-|----17-15---(15)-------|
|-------------------------|-----------------------|
|-------------------------|-----------------------|
|-------------------------|-----------------------|
|-------------------------|-----------------------|
|
|  <                         <
|  H          +H             H          +H
|-17---------(17)---------|-15---------(15)-------|
|-------------------------|-----------------------|
|-------------------------|-----------------------|
|-------------------------|-----------------------|
|-------------------------|-----------------------|
|-------------------------|-----------------------|


   E  E  E E   E  E  E  E    E  E  E E   E  E E  E
|-------------------------|------------------------|
|-------------------------|------------------------|
|--7-----7-----9----10----|------------------------|
|-----7----7------7-----7-|--5-----5-----7----8----|
|-------------------------|-----3----3------3----3-|
|-------------------------|------------------------|
|
|  E  E  Q    +Q.       E    E  E  Q    +Q.      E
|-17----------------------|-17---------------------|
|----18-18---(18)------18-|----18-17---(17)-----17-|
|-------------------------|------------------------|
|-------------------------|------------------------|
|-------------------------|------------------------|
|-------------------------|------------------------|
|
|  <                         <
|  H          +H             H          +H
|-22---------(22)---------|-20---------(20)--------|
|-------------------------|------------------------|
|-------------------------|------------------------|
|-------------------------|------------------------|
|-------------------------|------------------------|
|-------------------------|------------------------|


   E  E  E E   E  E  E  E    E  E   Q    +H
|-------------------------|---------------------|
|-------------------------|---------------------|
|-------------------------|---------------------|
|--7-----7-----9----10----|--7------5----(5)----|
|-----7----7------7-----7-|-----5---------------|
|-------------------------|---------------------|
|
|  E  E  Q    +Q.       E    E  E   Q    +H
|-17----------------------|-15------------------|
|----17-17---(17)------17-|----17--15---(15)----|
|-------------------------|---------------------|
|-------------------------|---------------------|
|-------------------------|---------------------|
|-------------------------|---------------------|
|
|  <                         <
|  H          +H             Q     +Q    +H
|-17---------(17)---------|-15----(15)--(15)----|
|-------------------------|---------------------|
|-------------------------|---------------------|
|-------------------------|---------------------|
|-------------------------|---------------------|
|-------------------------|---------------------|


   +W            +W            +W            +W
|-------------|-------------|-------------|---------*|
|-------------|-------------|-------------|---------*|
|-------------|-------------|-------------|---------*|
|--(5)--------|--(5)--------|--(5)--------|--(5)----*|
|-------------|-------------|-------------|---------*|
|-------------|-------------|-------------|---------*|
|
|  +W            +W            +W            +W
|-------------|-------------|-------------|---------*|
|-(15)--------|-(15)--------|-(15)--------|-(15)----*|
|-------------|-------------|-------------|---------*|
|-------------|-------------|-------------|---------*|
|-------------|-------------|-------------|---------*|
|-------------|-------------|-------------|---------*|
|
| Gtr V
|  +W            +W            +W            +W
|-(15)--------|-(15)--------|-(15)--------|-(15)----*|
|-------------|-------------|-------------|---------*|
|-------------|-------------|-------------|---------*|
|-------------|-------------|-------------|---------*|
|-------------|-------------|-------------|---------*|
|-------------|-------------|-------------|---------*|


Duration Legend
---------------
W - whole; H - half; Q - quarter; E - 8th; S - 16th; T - 32nd; X - 64th; a - acciaccatura
+ - note tied to previous; . - note dotted; .. - note double dotted
Uncapitalized letters represent notes that are staccato (1/2 duration)
Irregular groupings are notated above the duration line
Duration letters will always appear directly above the note/fret number it represents the
duration for.  Duration letters with no fret number below them represent rests.  Multi-
bar rests are notated in the form Wxn, where n is the number of bars to rest for.  Low
melody durations appear below the staff

Tablature Legend
----------------
 h   - hammer-on
 p   - pull-off
 b   - bend
 pb  - pre-bend
 r   - bend release (if no number after the r, then release immediately)
 /\  - slide into or out of (from/to "nowhere")
 s   - legato slide
 S   - shift slide
  - natural harmonic
[n]  - artificial harmonic
n(n) - tapped harmonic
 ~   - vibrato
 tr  - trill
 T   - tap
 TP  - trem. picking
 PM  - palm muting
\n/  - tremolo bar dip; n = amount to dip
 \n  - tremolo bar down
 n/  - tremolo bar up
/n\  - tremolo bar inverted dip
 =   - hold bend; also acts as connecting device for hammers/pulls
 <>  - volume swell (louder/softer)
 x   - on rhythm slash represents muted slash
 o   - on rhythm slash represents single note slash

Misc Legend
-----------
 |  - bar
||  - double bar
||o - repeat start
o|| - repeat end
*|  - double bar (ending)
 :  - bar (freetime)
 $  - Segno
 &  - Coda
Tempo markers -  = BPM(8/16=s8/s16), where s8 = swing 8ths, s16 = swing 16ths





Comments


Popular 69 Eyes tabs & chords
Brandon Lee Chords
Wasting The Dawn 1 Chords
D.I.D Tabs
Feel Berlin Tabs
From Dusk Till Dawn 2 Tabs
Shadow Of Your Love Intro Tabs
Velvet Touch Tabs
Velvet Touch 1 Tabs
Brandon Lee Ukulele
Chair Ukulele


Song lyrics



↑ Back to top | Tablatures and chords are parodies/interpretations of the original songs. You may use it for private study, scholarship, research or language learning purposes only
© 2014 AZChords.com Contact us | Privacy policy | DMCA | Add/correct tabs | Request tabs | Top 50 tabs