» » »

69 Eyes, Some Kind Of Magick Tabs (ver.1)

Artists:  A B C D E F G H I J K L M N O P Q R S T U V W X Y Z # 

Some Kind Of Magick Tabs (ver.1)

69 Eyes Tabs
Rating:
5/5 (1 vote)
Hard to play? Try these video lessons and learn fast.
                -------------------------------------------------------------------------------
                             Some Kind of Magick - The 69 Eyes
-------------------------------------------------------------------------------





Tuning: Drop Db ( Db Ab Db Gb Bb Eb )


   Intro ( Bazie w/ Clean Acoustic ) x 6

   This is the easiest way to play the intro


      D#                 D#m               C#m

eb|------------------------------------------------------------------------|
Bb|----8------8---------7-----7----------5------5---------5------5---------|
Gb|------9------9---------9-----9----------7------7---------7------7-------|
Db|--9-----9------9---------9-----9----------7------7---------7------7-----|
Ab|------------------------------------------------------------------------|
Db|------------------------------------------------------------------------|


    Timo-Timo play this with Bazie the second time throughout the

    rest of the Intro...


eb|------------------------------------------------------------------|
Bb|------------------------------------------------------------------|
Gb|------------------------------------------------------------------|
Db|------------------------------------------------------------------|
Ab|----10---9---7----------10---12---7-------------------------------|
Db|------------------------------------------------------------------|

     Guitar III plays this the third time with Bazie and Timo-Timo...

     Heavy Distortion

eb|-----------------------------------------------------------------|
Bb|-----------------------------------------------------------------|
Gb|-----------------------------------------------2-----------------|
Db|---2---------------------0---------------------2-----------------|
Ab|---2---------------------0---------------------0-----------------|
Db|---2---------------------0---------------------------------------|

    Verse ( Timo-Timo with Heavy Distortion ) x 4

eb|------------------------------------------------------------------|
Bb|------------------------------------------------------------------|
Gb|---------------------------------------2-2-2-2-2-2-2-2-2-2-2-2----|
Db|---2-2-2-2-2-2-2-2---0-0-0-0-0-0-0-0---2-2-2-2-2-2-2-2-2-2-2-2----|
Ab|---2-2-2-2-2-2-2-2---0-0-0-0-0-0-0-0---0-0-0-0-0-0-0-0-0-0-0-0----|
Db|---2-2-2-2-2-2-2-2---0-0-0-0-0-0-0-0------------------------------|

     " Wait if I cannot hold on"


    Pre-Chorus ( Heavy Distortion ) x 1

    Just listen hard for the correct rhythm.

eb|------------------------------------------------------------------|
Bb|------------------------------------------------------------------|
Gb|--------------------------------------------4-4-4-4-4-------------|
Db|---4---4--4-4----7----7--7------4--4-4------4-4-4-4-4-------------|
Ab|---4---4--4-4----7----7--7------4--4-4------2-2-2-2-2-------------|
Db|---4---4--4-4----7----7--7------4--4-4----------------------------|

     " Another thousand rainbows shine"




    Chorus ( Bazie and Timo-Timo w/ different riffs ) x 2


      Bazie w/ Clean Acoustic

      This was very hard to pick out of the song so be gentle


       C#m ( Play like you would a strumming D chord in Standard E )

eb|---5---5-----3----3------2----2------3----2--0h2-----------------------|
Bb|-----------3----3------3----3------3----3------------------------------|
Gb|-----------------------------------------------------------------------|
Db|-----------------------------------------------------------------------|
Ab|-----------------------------------------------------------------------|
Db|-----------------------------------------------------------------------|

  " Ow, Ow, some kind of magic "

     Timo-Timo w/ Distortion - Listen for rhythm

eb|--------------------------------------------------------|
Bb|--------------------------------------------------------|
Gb|----------------------7---------------------------------|
Db|---7------5-----------7---------------------------------|
Ab|---7------5-----------5---------------------------------|
Db|---7------5---------------------------------------------|


     Repeat Intro ( Main Riff ) x 2


     Repeat Verse x 4

    Repeat Chorus x 4


     Solo ( I will do later... not 100% yet )


eb|---------------------------------------------------------------------------|
Bb|---------------------------------------------------------------------------|
Gb|---------------------------------------------------------------------------|
Db|---------------------------------------------------------------------------|
Ab|---------------------------------------------------------------------------|
Db|---------------------------------------------------------------------------|

eb|------------------------------------------------------------------------|
Bb|------------------------------------------------------------------------|
Gb|----------------------------------------------------------7b---9b-------|
Db|-------------------------------------------------------------------7nh--|
Ab|------------------------------------------------------------------------|
Db|------------------------------------------------------------------------|

                                                        " some kind of magic"

   Guitar Riff before entering Chorus 3   x 1

eb|-----------------------------|
Bb|---6--5-------------5--------|
Gb|---------7------5-7---7------|
Db|------------5-7--------------|
Ab|-----------------------------|
Db|-----------------------------|



    Chorus 3 ( Played one step up from the first two choruses ) x 6

    Bazie w/ Clean Acoustic


eb|--------------------------------------------------------------|
Bb|----12---12------10---10-----9---9-----10----9---7h9----------|
Gb|--9----9-------9----9------9---9-----9-----9------------------|
Db|--------------------------------------------------------------|
Ab|--------------------------------------------------------------|
Db|--------------------------------------------------------------|


    Timo-Timo w/ Distortion - Listen for Rhythm

eb|----------------------------------------------|
Bb|----------------------------------------------|
Gb|---------------------------9------------------|
Db|--9------------7-----------9------------------|
Ab|--9------------7-----------7------------------|
Db|--9------------7------------------------------|



    Outro ( Heavy Distortion )


eb|---------------------------------------------------------------------------------|
Bb|---------------------------------------------------------------------------------|
Gb|---4-------------2---------------------------------------------------------------|
Db|---4-------------2----------------2----------------------------------------------|
Ab|---2-------------0----------------2----------------------------------------------|
Db|----------------------------------2----------------------------------------------|

   " Can u feel it"                   " Some kind of Magic "

   Pretty easy song right?

| h  hammer-on
| nh  natural harmonic
| b  bend and release bend
            

comments powered by Disqus
↑ Back to top | 69 Eyes Tabs for Some Kind Of Magick. Lyrics for acoustic guitar and electric guitar. Tablatures and chords are parodies/interpretations of the original songs. You may use it for private study, scholarship, research or language learning purposes only