>
 >
Sleeping With Lions

Sleeping With Lions Guitar Tabs

69 Eyes - Sleeping With Lions chords, tabs, tablatures, lyrics

Guitar lessons | Add/correct | Request | Top 50 tabs Artists:  A B C D E F G H I J K L M N O P Q R S T U V W X Y Z 0-9

Sleeping With Lions Guitar Tabs – 69 Eyes

CD, Sheet music, Poster

Do you like Sleeping With Lions? Share with your friends now
Bass TabsTabsTabs v2
#------------------------------------------------------------------------------##

                               SLEEPING WITH LIONS
                           As recorded by The 69 Eyes
                        (From the 2000 Album BLESSED BE)

Words by Jyrki69

Music by Bazie
Arranged by The 69 Eyes

          A5                   G5                   E5                   D5
      7 7 7 x x x          5 5 5 x x x          2 2 2 x x x          x 5 7 7 x x

          F5                 F5VIII                C5/G                D5open
      3 3 3 x x x         x 8 10 10 x x         5 3 5 x x x          0 0 0 x x x

Gtr I (Db Ab Db Gb Bb Eb) - 'Untitled'
Gtr II (Db Ab Db Gb Bb Eb) - 'Untitled'
Gtr III (Db Ab Db Gb Bb Eb) - 'Untitled'
Gtr IV (Db Ab Db Gb Bb Eb) - 'Untitled'
Gtr V (Db Ab Db Gb Bb Eb) - 'Untitled'
Gtr VI (Db Ab Db Gb Bb Eb) - 'Untitled'

 Intro
  Q=114
  N.C.
 4/4
  Gtrs I, VI
   E E E E +E  E E E   E E E E +E  E a E E
|--------------------|---------------------|
|--------------------|---------------------|
|----5---4-(4)-------|---------------------|
|-/7---7-------5-----|---5---4-(4)-------5-|
|----------------5-5s|=7---7-------5-5s7---|
|--------------------|---------------------|


   E E E E +E  E E E   +E  E H    a  E  E
|--------------------|---------------------||
|--------------------|---------------------||
|----5---4-(4)-------|-------7-------------||
|-/7---7-------5-----|-----5------5s10\----||
|----------------5-5-|-(5)-----------------||
|--------------------|---------------------||


 Pre-Verse
  A5      G5               E5     D5open
  Gtr III
   Q.     H           +E   Q.     H           +E
   |      |            |   |      |            |
   /      /            /   /      /            /

  Gtrs II, VI
   E  E E E +E  E  E   E   E  E E E +E  E a E  E
|------------------------|-----------------------|
|------------------------|-----------------------|
|-----5---4-(4)----------|-----------------------|
|-/7----7-------5--------|----5---4-(4)--------5-|
|------------------5---5s|=7----7-------5-5s7----|
|------------------------|-----------------------|
|
| Gtr IV
|  E  E E E +E  E +E   E   E  E E E +E  E   E  E
|------------------------|-----------------------|
|------------------------|-----------------------|
|-----5---4-(4)----------|-----------------------|
|--7----7-------5-(5)----|----5---4-(4)--------5-|
|----------------------5-|-7----7-------5---7----|
|------------------------|-----------------------|


  A5      G5        D5open
   Q.     H         E   +W
   |      |         |    |
   /      /         /    /

   E  E E E +E  E E E   +Q   Q   E  E  Q
|---------------------|--------------------|
|---------------------|--------------------|
|-----5---4-(4)-----7-|-(7)--7--(7)(7)-7---|
|-/7----7-------5---7-|-(7)--7--(7)(7)-7---|
|-----------------5-5-|-(5)--5---9p=5--5---|
|---------------------|--------------------|
|
|  E  E E E +E  E E E   +W
|---------------------|--------------------|
|---------------------|--------------------|
|-----5---4-(4)-------|--------------------|
|--7----7-------5-----|--------------------|
|-----------------5-5-|-(5)----------------|
|---------------------|--------------------|


  A5      G5             E5     D5open
   Q.     H         +E   Q.     H           +E
   |      |          |   |      |            |
   /      /          /   /      /            /

   E  E E E +E  E E  E   E  E E E +E  E a E  E
|----------------------|-----------------------|
|----------------------|-----------------------|
|-----5---4-(4)--------|-----------------------|
|-/7----7-------5------|----5---4-(4)--------5-|
|-----------------5--5s|=7----7-------5-5s7----|
|----------------------|-----------------------|
|
|  E  E E E +E  E E  E   E  E E E +E  E   E  E
|----------------------|-----------------------|
|----------------------|-----------------------|
|-----5---4-(4)--------|-----------------------|
|--7----7-------5------|----5---4-(4)--------5-|
|-----------------5--5-|-7----7-------5---7----|
|----------------------|-----------------------|


  A5      G5        D5open
   Q.     H         E   +W
   |      |         |    |
   /      /         /    /

   E  E E E +E  E E E   +H     +E  E Q
|---------------------|-------------------||
|---------------------|-------------------||
|-----5---4-(4)-----7-|-(7)----(7)-7-7\---||
|-/7----7-------5---7-|-(7)----(7)-7-7\---||
|-----------------5-5-|-(5)----(5)-5-5\---||
|---------------------|-------------------||
|
|  E  E E E +E  E E E   +W
|---------------------|-------------------||
|---------------------|-------------------||
|-----5---4-(4)-------|-------------------||
|--7----7-------5-----|-------------------||
|-----------------5-5-|-(5)---------------||
|---------------------|-------------------||


   Verse
    $
    N.C.
    Gtrs I, VI
    E E E Q.   E E   +Q   E Q.   Q    E E E Q.   E E   +Q   E Q.   Q    3x
||-----------------|----------------|----------------|------------------||
||o----------------|----------------|----------------|-----------------o||
||----5---4------7-|-(7)----5-------|---5---4------5-|-(5)----7---------||
||----5---5------5-|-(5)----5-------|---5---5------5-|-(5)----5---------||
||o----------------|----------------|----------------|-----------------o||
||-----------------|----------------|----------------|------------------||


                                                  To Coda
                                                  D5
  E E E Q.   E E   +Q   E Q.   E E   +W           E E H.
|----------------|-----------------|------------|------------||
|--------------5-|-(5)----3------1-|-(1)--------|------------||
|---5---4------4-|-(4)----4------2-|-(2)--------|-----7------||
|---5---5--------|-----------------|------------|---7--------||
|----------------|-----------------|------------|-5----------||
|----------------|-----------------|------------|------------||


 Chorus
  A5              G5
  Gtr III
  Q  H         +E E   +W
  |  |          | |    |
  /  /          / /    /

  Q  E E +E  E  E E   +E  E   E  S   S   S  S E Q
|-5--5-5-(5)-5----3-|-(3)-3---3-(3)-(3)-(3)---3-3--|
|-5--5-5-(5)-5----3-|-(3)-3---3-(3)-(3)-(3)---3-3--|
|-5--5-5-(5)-5----4-|-(4)-4---4-(4)-(4)-(4)---4-4--|
|-7--7-7-(7)-7----5-|-(5)-5---5-(5)-(5)-(5)---5-5--|
|-------------------|------------------------------|
|-------------------|------------------------------|
|
| Gtr IV
| H       E  E  E E   +E  H..
|-------------------|------------------------------|
|---------5--3------|------------------------------|
|---------------5-4-|-(4)--------------------------|
|-------------------|-----5------------------------|
|-------------------|------------------------------|
|-------------------|------------------------------|


  E5            F5               G5
  Q  H       +E E   +H        +E E Q
  |  |        | |    |         | | |
  /  /        / /    /         / / /

  Q  Q   E E  E E   +E  E Q    E E Q
|-0--0---0-0--0-1-|-(1)-1-1------3-3--|
|-0--0---0-0--0-1-|-(1)-1-1------3-3--|
|-1--1---1-1--1-2-|-(2)-2-2------4-4--|
|-2--2---2-2--2-3-|-(3)-3-3------5-5--|
|-----------------|-------------------|
|-----------------|-------------------|
|
| Q  E E E E  E E   +Q    H.
|-----------------|-------------------|
|-----------------|-------------------|
|----4-4-4-2--4-5-|-(5)---------------|
|-----------------|-------------------|
|-----------------|-------------------|
|-----------------|-------------------|


  A5              G5
  Q  H         +E E   +W
  |  |          | |    |
  /  /          / /    /

  Q  E E +E  E  E E   +E  E   E  S   S   S  S E Q
|-5--5-5-(5)-5----3-|-(3)-3---3-(3)-(3)-(3)---3-3--|
|-5--5-5-(5)-5----3-|-(3)-3---3-(3)-(3)-(3)---3-3--|
|-5--5-5-(5)-5----4-|-(4)-4---4-(4)-(4)-(4)---4-4--|
|-7--7-7-(7)-7----5-|-(5)-5---5-(5)-(5)-(5)---5-5--|
|-------------------|------------------------------|
|-------------------|------------------------------|
|
| H       E  E  E E   +E  H..
|-------------------|------------------------------|
|---------5--3------|------------------------------|
|---------------5-4-|-(4)--------------------------|
|-------------------|-----5------------------------|
|-------------------|------------------------------|
|-------------------|------------------------------|


  E5            F5               C5/G
  Q  H       +E E   +H        +E E Q
  |  |        | |    |         | | |
  /  /        / /    /         / / /

  Q  Q   E E  E E   +E  E q    E E Q
|-0--0---0-0--0-1-|-(1)-1-1------3-3\--||
|-0--0---0-0--0-1-|-(1)-1-1------5-5\--||
|-1--1---1-1--1-2-|-(2)-2-2------5-5\--||
|-2--2---2-2--2-3-|-(3)-3-3------5-5\--||
|-----------------|--------------------||
|-----------------|--------------------||
|
| Q  E E E E  E E   +Q    H.
|-----------------|--------------------||
|-----------------|--------------------||
|----4-4-4-2--4-5-|-(5)----------------||
|-----------------|--------------------||
|-----------------|--------------------||
|-----------------|--------------------||


 Pre-Verse
  A5      G5             E5     D5open
   Q.     H         +E   Q.     H           +E
   |      |          |   |      |            |
   /      /          /   /      /            /

  Gtrs II, IV
   E  E E E +E  E E  E   E  E E E +E  E a E  E
|----------------------|-----------------------|
|----------------------|-----------------------|
|-----5---4-(4)--------|-----------------------|
|-/7----7-------5------|----5---4-(4)--------5-|
|-----------------5--5s|=7----7-------5-5s7----|
|----------------------|-----------------------|
|
|  E  E E E +E  E E  E   E  E E E +E  E   E  E
|----------------------|-----------------------|
|----------------------|-----------------------|
|-----5---4-(4)--------|-----------------------|
|--7----7-------5------|----5---4-(4)--------5-|
|-----------------5--5-|-7----7-------5---7----|
|----------------------|-----------------------|


                        D.S. al Coda
  A5      G5        D5open
   Q.     H         E   +W
   |      |         |    |
   /      /         /    /

                         >
   E  E E E +E  E E E   +H.      Q
|---------------------|---------------||
|---------------------|---------------||
|-----5---4-(4)-----7-|-(7)------7\---||
|-/7----7-------5---7-|-(7)------7\---||
|-----------------5-5-|-(5)------5\---||
|---------------------|---------------||
|
|  E  E E E +E  E E E   +W
|---------------------|---------------||
|---------------------|---------------||
|-----5---4-(4)-------|---------------||
|--7----7-------5-----|---------------||
|-----------------5-5-|-(5)-----------||
|---------------------|---------------||


 Chorus
  &
  A5              G5
  Gtr III
  Q  H         +E E   +W
  |  |          | |    |
  /  /          / /    /

  Gtrs I, VI
  Q  E E +E  E  E E   +E  E   E  S   S   S  S E Q
|-5--5-5-(5)-5----3-|-(3)-3---3-(3)-(3)-(3)---3-3--|
|-5--5-5-(5)-5----3-|-(3)-3---3-(3)-(3)-(3)---3-3--|
|-5--5-5-(5)-5----4-|-(4)-4---4-(4)-(4)-(4)---4-4--|
|-7--7-7-(7)-7----5-|-(5)-5---5-(5)-(5)-(5)---5-5--|
|-------------------|------------------------------|
|-------------------|------------------------------|
|
| Gtr IV
| H       E  E  E E   +E  H..
|-------------------|------------------------------|
|---------5--3------|------------------------------|
|---------------5-4-|-(4)--------------------------|
|-------------------|-----5------------------------|
|-------------------|------------------------------|
|-------------------|------------------------------|


  E5              F5               G5
  Q  H         +E E   +H        +E E Q
  |  |          | |    |         | | |
  /  /          / /    /         / / /

  Q  E E +E  E  E E   +E  E Q    E E Q
|-0--0-0-(0)-0--0-1-|-(1)-1-1------3-3--|
|-0--0-0-(0)-0--0-1-|-(1)-1-1------3-3--|
|-1--1-1-(1)-1--1-2-|-(2)-2-2------4-4--|
|-2--2-2-(2)-2--2-3-|-(3)-3-3------5-5--|
|-------------------|-------------------|
|-------------------|-------------------|
|
| Q  E E  E  E  E E   +Q    H.
|-------------------|-------------------|
|-------------------|-------------------|
|----4-4--4--2--4-5-|-(5)---------------|
|-------------------|-------------------|
|-------------------|-------------------|
|-------------------|-------------------|


  A5              G5
  Q  H         +E E   +W
  |  |          | |    |
  /  /          / /    /

  Q  E E +E  E  E E   +E  E   E  S   S   S  S E Q
|-5--5-5-(5)-5----3-|-(3)-3---3-(3)-(3)-(3)---3-3--|
|-5--5-5-(5)-5----3-|-(3)-3---3-(3)-(3)-(3)---3-3--|
|-5--5-5-(5)-5----4-|-(4)-4---4-(4)-(4)-(4)---4-4--|
|-7--7-7-(7)-7----5-|-(5)-5---5-(5)-(5)-(5)---5-5--|
|-------------------|------------------------------|
|-------------------|------------------------------|
|
| H       E  E  E E   +E  H..
|-------------------|------------------------------|
|---------5--3------|------------------------------|
|---------------5-4-|-(4)--------------------------|
|-------------------|-----5------------------------|
|-------------------|------------------------------|
|-------------------|------------------------------|


  E5              F5               D5open
  Q  H         +E E   +H        +E E Q
  |  |          | |    |         | | |
  /  /          / /    /         / / /

  Q  E E +E  E  E E   +E  E Q    E E Q
|-0--0-0-(0)-0--0-1-|-(1)-1-1------5-5\--|
|-0--0-0-(0)-0--0-1-|-(1)-1-1------7-7\--|
|-1--1-1-(1)-1--1-2-|-(2)-2-2------7-7\--|
|-2--2-2-(2)-2--2-3-|-(3)-3-3------7-7\--|
|-------------------|--------------------|
|-------------------|--------------------|
|
| Q  E E  E  E  E E   +Q    H.
|-------------------|--------------------|
|-------------------|--------------------|
|----4-4--4--2--4-5-|-(5)----------------|
|-------------------|--------------------|
|-------------------|--------------------|
|-------------------|--------------------|


  A5              G5
  Q  H         +E E   +W
  |  |          | |    |
  /  /          / /    /

  Q  E E +E  E  E E   +E  E   E  S   S   S  S E Q
|-5--5-5-(5)-5----3-|-(3)-3---3-(3)-(3)-(3)---3-3--|
|-5--5-5-(5)-5----3-|-(3)-3---3-(3)-(3)-(3)---3-3--|
|-5--5-5-(5)-5----4-|-(4)-4---4-(4)-(4)-(4)---4-4--|
|-7--7-7-(7)-7----5-|-(5)-5---5-(5)-(5)-(5)---5-5--|
|-------------------|------------------------------|
|-------------------|------------------------------|
|
| H       E  E  E E   +E  H..
|-------------------|------------------------------|
|---------5--3------|------------------------------|
|---------------5-4-|-(4)--------------------------|
|-------------------|-----5------------------------|
|-------------------|------------------------------|
|-------------------|------------------------------|


  E5              F5               G5
  Q  H         +E E   +H        +E E Q
  |  |          | |    |         | | |
  /  /          / /    /         / / /

  Q  E E +E  E  E E   +E  E Q    E E Q
|-0--0-0-(0)-0--0-1-|-(1)-1-1------3-3--|
|-0--0-0-(0)-0--0-1-|-(1)-1-1------3-3--|
|-1--1-1-(1)-1--1-2-|-(2)-2-2------4-4--|
|-2--2-2-(2)-2--2-3-|-(3)-3-3------5-5--|
|-------------------|-------------------|
|-------------------|-------------------|
|
| Q  E E  E  E  E E   +Q    H.
|-------------------|-------------------|
|-------------------|-------------------|
|----4-4--4--2--4-5-|-(5)---------------|
|-------------------|-------------------|
|-------------------|-------------------|
|-------------------|-------------------|


  A5              G5
  Q  H         +E E   +W
  |  |          | |    |
  /  /          / /    /

  Q  E E +E  E  E E   +E  E   E  S   S   S  S E Q
|-5--5-5-(5)-5----3-|-(3)-3---3-(3)-(3)-(3)---3-3--|
|-5--5-5-(5)-5----3-|-(3)-3---3-(3)-(3)-(3)---3-3--|
|-5--5-5-(5)-5----4-|-(4)-4---4-(4)-(4)-(4)---4-4--|
|-7--7-7-(7)-7----5-|-(5)-5---5-(5)-(5)-(5)---5-5--|
|-------------------|------------------------------|
|-------------------|------------------------------|
|
| H       E  E  E E   +E  H..
|-------------------|------------------------------|
|---------5--3------|------------------------------|
|---------------5-4-|-(4)--------------------------|
|-------------------|-----5------------------------|
|-------------------|------------------------------|
|-------------------|------------------------------|


  E5            F5              C5/G
  Q  H       +E E   +H       +E E Q
  |  |        | |    |        | | |
  /  /        / /    /        / / /

  Q  E Q   E  E E   +Q   Q    E E Q
|-0--0-0---0--0-1-|-(1)--1------3-3\--||
|-0--0-0---0--0-1-|-(1)--1------5-5\--||
|-1--1-1---1--1-2-|-(2)--2------5-5\--||
|-2--2-2---2--2-3-|-(3)--3------5-5\--||
|-----------------|-------------------||
|-----------------|-------------------||
|
| Q  E E E E  E E   +Q   H.
|-----------------|-------------------||
|-----------------|-------------------||
|----4-4-4-2--4-5-|-(5)---------------||
|-----------------|-------------------||
|-----------------|-------------------||
|-----------------|-------------------||


 Guitar Solo
  A5      G5             E5     D5open
   Q.     H         +E   Q.     H           +E
   |      |          |   |      |            |
   /      /          /   /      /            /

  Gtrs II, VI
   E  E E E +E  E E  E   E  E E E +E  E a E  E
|----------------------|-----------------------|
|----------------------|-----------------------|
|-----5---4-(4)--------|-----------------------|
|-/7----7-------5------|----5---4-(4)--------5-|
|-----------------5--5s|=7----7-------5-5s7----|
|----------------------|-----------------------|
|
| Gtr V
|  W                     W
|----------------------|-----------------------|
|----------------------|-----------------------|
|----------------------|-----------------------|
|----------------------|-----------------------|
|----------------------|-----------------------|
|----------------------|-----------------------|
|
| Gtr IV
|  E  E E E +E  E E  E   E  E E E +E  E   E  E
|----------------------|-----------------------|
|--5------3-(3)--------|-----------------------|
|--5--5---4-(4)-4------|-4------2-(2)----------|
|--7----7-5-(5)---5----|-5--5---4-(4)--------5-|
|--------------------7-|-7----7-5-(5)-5---7----|
|----------------------|-----------------------|


  A5         G5                                         D5open
   Q.         H                                           E     +W
   |          |                                           |      |
   /          /                                           /      /

   E     E E  E          +E            E        E         E     +Q       Q   Q    Q
|------------------------------------------------------------|---------------------------|
|------------------------------------------------------------|---------------------------|
|--------5----4----------(4)------------------------------7--|--(7)------7---7----7------|
|-/7-------7---------------------------5------------------7--|--(7)------7---7----7------|
|-----------------------------------------------5---------5--|--(5)------5---5----5------|
|------------------------------------------------------------|---------------------------|
|
|             T     T     T      T     T     T     T
|                                      |--3--|  |--3--|
|  Q.         T  T  T  T  T   T  T  T  S  S  S  S  S  S  +E     +E   E   H       +E   E
|------------------------------------------------------------|---------------------------|
|------------------------------------------------------------|---------------------------|
|------------------------------------------------------------|------12-[14]-----(14)-12--|
|-12b14======17p12-17p12-17p=12-17p12-17p12-17p12-17-12r(12)-|-(12)----------------------|
|------------------------------------------------------------|---------------------------|
|------------------------------------------------------------|---------------------------|
|
|  E     E E  E          +E            E        E         E     +Q       Q   Q    Q
|--5----------3----------(3)-----------3---------------------|---------------------------|
|--5----------3----------(3)-----------3---------------------|---------------------------|
|--5-----5----4----------(4)-----------4------------------2--|--(2)------2---2----2------|
|----------7----------------------------------------------4--|--(4)------4---4----4------|
|-----------------------------------------------5---------5--|--(5)------5---5----5------|
|------------------------------------------------------------|---------------------------|


  A5                     G5                       E5       D5open
    Q.                    H                  +E     Q.       H                              +E
    |                     |                   |     |        |                               |
    /                     /                   /     /        /                               /

    E        E   E        E    +E     E    E  E     E  E E   E            +E         E  a E  E
|-----------------------------------------------|----------------------------------------------|
|-----------------------------------------------|----------------------------------------------|
|------------5------------4----(4)--------------|----------------------------------------------|
|--/7------------7--------------------5---------|------5-----4------------(4)----------------5-|
|------------------------------------------5--5s|===7----7---------------------------5--5s7----|
|-----------------------------------------------|----------------------------------------------|
|
|                |--3--|                                     |--------3---------|
|  +E       +E   S  S  S  S  S  S   E    S E  E    +Q.       E       +E         E    Q.
|-----------------------------------------------|----------------------------------------------|
|-----------------------------------------------|----------------------------------------------|
|-(12)b14==(12)-14p12h14p12h14p12h=14r==12p9----|-----------------------------[12]-[14]--------|
|--------------------------------------------12-|-(12)-----[14]b16==(14)r----------------------|
|-----------------------------------------------|----------------------------------------------|
|-----------------------------------------------|----------------------------------------------|
|
|   E        E   E        E    +E     E    E  E     E  E E   E            +E         E    E  E
|-----------------------------------------------|----------------------------------------------|
|---5---------------------3----(3)--------------|----------------------------------------------|
|---5--------5------------4----(4)----4---------|---4--------2------------(2)------------------|
|---7------------7--------5----(5)---------5----|---5--5-----4------------(4)----------------5-|
|---------------------------------------------7-|---7----7---5------------(5)--------5----7----|
|-----------------------------------------------|----------------------------------------------|


  A5            G5                 D5open
   Q.            H                 E    +W
   |             |                 |     |
   /             /                 /     /

   E    E  E     E       +E   E  E E    +Q         Q           Q     Q
|------------------------------------|-----------------------------------------||
|------------------------------------|-----------------------------------------||
|-------5--------4-------(4)-------7-|--(7)--------7-----------7-----7---------||
|-/7-------7------------------5----7-|--(7)--------7-----------7-----7---------||
|--------------------------------5-5-|--(5)--------5-----------5-----5---------||
|------------------------------------|-----------------------------------------||
|
|                |--3--|
|  Q       E     S  S  S  E   Q.        +E   S  S  E     E     E  E  E  E
|------------------------------------|------------------15b17-15---------------||
|-15b17---15b17-13h15p13-15----------|------13-15-15b17----------17-17-15b17===||
|----------------------------14------|-(14)------------------------------------||
|------------------------------------|-----------------------------------------||
|------------------------------------|-----------------------------------------||
|------------------------------------|-----------------------------------------||
|
|  E    E  E     E       +E   E  E E    +Q         Q           E  E  E  E
|--5-------------3-------(3)--3------|-----------------------------------------||
|--5-------------3-------(3)--3------|-----------------------------------------||
|--5----5--------4-------(4)--4----2-|--(2)--------2-----------2--------2------||
|----------7-----------------------4-|--(4)--------4-----------4-----4---------||
|--------------------------------5-5-|--(5)--------5-----------5--5------------||
|------------------------------------|-----------------------------------------||


 Chorus
  A5                         G5
    Q    H             +E    E   +W
    |    |              |    |    |
    /    /              /    /    /

  Gtrs I, VI
    Q    E  E    +E  E  E    E   +E    E  Q      E E E E
|---5----5--5----(5)-5--5----3-|-(3)---3--3--------3-3-3-|
|---5----5--5----(5)-5--5----3-|-(3)---3--3--------3-3-3-|
|---5----5--5----(5)-5--5----4-|-(4)---4--4--------4-4-4-|
|---7----7--7----(7)-7--7----5-|-(5)---5--5--------5-5-5-|
|------------------------------|-------------------------|
|------------------------------|-------------------------|
|
|  +Q.      Q.          Q         Q       H.
|------------------------------|-------------------------|
|-(15)r----15b17-------15b17---|-15b17---15b17===========|
|------------------------------|-------------------------|
|------------------------------|-------------------------|
|------------------------------|-------------------------|
|------------------------------|-------------------------|
|
|   W                             H              E E E E
|------------------------------|-------------------------|
|------------------------------|-----------------5-3-----|
|------------------------------|---------------------5-4-|
|------------------------------|-------------------------|
|------------------------------|-------------------------|
|------------------------------|-------------------------|


  E5                        F5                                   G5
    Q     H              +E  E        +H               +E        E  Q
    |     |               |  |         |                |        |  |
    /     /               /  /         /                /        /  /

    Q     E  E +E    E    E  E        +E   E  Q         E        E  Q
|---0-----0--0-(0)---0----0--1-----|--(1)--1--1------------------3--3----|
|---0-----0--0-(0)---0----0--1-----|--(1)--1--1------------------3--3----|
|---1-----1--1-(1)---1----1--2-----|--(2)--2--2------------------4--4----|
|---2-----2--2-(2)---2----2--3-----|--(3)--3--3------------------5--5----|
|----------------------------------|-------------------------------------|
|----------------------------------|-------------------------------------|
|
|                                             ~~~~~~
|  +Q    +Q.        +E    E  E        +Q      Q        +S   +S   Q.
|---------------------------15b17==|=(15)r---15b17====(15)r(15)\---------|
|-(15)--(15)r======(15)\-----------|-------------------------------------|
|----------------------------------|-------------------------------------|
|----------------------------------|-------------------------------------|
|----------------------------------|-------------------------------------|
|----------------------------------|-------------------------------------|
|
|  +Q     H               E  E        +Q      E     E   E        E  E E
|----------------------------------|-------------------------------------|
|----------------------------------|-------------------------------------|
|--(4)-----------------------5-----|--(5)------------------------5--4-5--|
|----------------------------------|--------------------5----------------|
|----------------------------------|----------------8--------------------|
|----------------------------------|-------------------------------------|


  A5              G5
  Q  H         +E E   +W
  |  |          | |    |
  /  /          / /    /

  Q  E E +E  E  E E   +E  E Q   E  E E E
|-5--5-5-(5)-5--5-3-|-(3)-3-3------3-3-3-|
|-5--5-5-(5)-5--5-3-|-(3)-3-3------3-3-3-|
|-5--5-5-(5)-5--5-4-|-(4)-4-4------4-4-4-|
|-7--7-7-(7)-7--7-5-|-(5)-5-5------5-5-5-|
|-------------------|--------------------|
|-------------------|--------------------|
|
| Gtr IV
| Q  Q    E  E  E E   +H       +E  E E E
|-------------------|--------------------|
|-5--5----5--3------|--------------------|
|-5--5----------5-4-|-(4)------(4)---4-5-|
|-7--7--------------|--------------5-----|
|-------------------|--------------------|
|-------------------|--------------------|


  E5              F5              D5open
  Q  H         +E E   +H       +E E Q
  |  |          | |    |        | | |
  /  /          / /    /        / / /

  Q  E E +E  E  E E   +E  E Q   E E Q
|-0--0-0-(0)-0--0-1-|-(1)-1-1-----5-5\--|
|-0--0-0-(0)-0--0-1-|-(1)-1-1-----7-7\--|
|-1--1-1-(1)-1--1-2-|-(2)-2-2-----7-7\--|
|-2--2-2-(2)-2--2-3-|-(3)-3-3-----7-7\--|
|-------------------|-------------------|
|-------------------|-------------------|
|
| Q  Q    E  E  E E   +H        E E Q
|-------------------|-------------------|
|---------5--3------|-------------7-7---|
|-4-------------4-5-|-(5)---------7-7---|
|-------------------|-------------7-7---|
|-------------------|-------------------|
|-------------------|-------------------|


  A5                G5
  H.             +E E   +W
  |               | |    |
  /               / /    /

  Q    E E +E  E  E E   +E  E Q   E E E E
|-5----5-5-(5)-5--5-3-|-(3)-3-3-----3-3-3-|
|-5----5-5-(5)-5--5-3-|-(3)-3-3-----3-3-3-|
|-5----5-5-(5)-5--5-4-|-(4)-4-4-----4-4-4-|
|-7----7-7-(7)-7--7-5-|-(5)-5-5-----5-5-5-|
|---------------------|-------------------|
|---------------------|-------------------|
|
| E  E E H          E    Q    E Q   E Q
|---------------------|-------------------|
|---------------------|-------------------|
|--------5------------|---------4-----4---|
|------7--------------|---------5-----5---|
|----7----------------|-------5-5---5-5---|
|-7-------------------|-------------------|


  E5               F5               G5
  Q  H          +E E   +H        +E E Q
  |  |           | |    |         | | |
  /  /           / /    /         / / /

  Q  E  E +E  E  E E   +E  E Q    E E Q
|-0--0--0-(0)-0--0-1-|-(1)-1-1------3-3---|
|-0--0--0-(0)-0--0-1-|-(1)-1-1------3-3---|
|-1--1--1-(1)-1--1-2-|-(2)-2-2------4-4---|
|-2--2--2-(2)-2--2-3-|-(3)-3-3------5-5---|
|--------------------|--------------------|
|--------------------|--------------------|
|
| Q  Q.       E  E E   +Q    E E  E E E E
|--------------------|--------------------|
|-------------5--3---|--------------------|
|------------------5-|-(5)----------5-4-5-|
|-5------------------|------------5-------|
|-7------------------|---------8----------|
|-9------------------|--------------------|


  A5              G5
  Q  H         +E E   +W
  |  |          | |    |
  /  /          / /    /

  Q  E E +E  E  E E   +E  E   Q  E E E E
|-5--5-5-(5)-5--5-3-|-(3)-3---3----3-3---|
|-5--5-5-(5)-5--5-3-|-(3)-3---3----3-3---|
|-5--5-5-(5)-5--5-4-|-(4)-4---4----4-4---|
|-7--7-7-(7)-7--7-5-|-(5)-5---5----5-5---|
|-------------------|--------------------|
|-------------------|--------------------|
|
| H       E  E  E E   +E  H..
|-------------------|--------------------|
|-5-------5--3------|--------------------|
|---------------5-4-|-(4)----------------|
|-------------------|-----5--------------|
|-------------------|--------------------|
|-------------------|--------------------|


  E5            F5             C5/G
  Q  H       +E E   +H      +E  E  Q
  |  |        | |    |       |  |  |
  /  /        / /    /       /  /  /

  Q  E Q   E  E E   +Q   Q   E  E  Q
|-0--0-0---0--0-1-|-(1)--1------3--3\--||
|-0--0-0---0--0-1-|-(1)--1------5--5\--||
|-1--1-1---1--1-2-|-(2)--2------5--5\--||
|-2--2-2---2--2-3-|-(3)--3------5--5\--||
|-----------------|--------------------||
|-----------------|--------------------||
|
| Q  E E E E  E E   +H       E  E  Q
|-----------------|--------------------||
|-----------------|-------------8--8---||
|----4-4-4-2--4-5-|-(5)---------9--9---||
|-----------------|------------10-10---||
|-----------------|--------------------||
|-----------------|--------------------||


 Outro
  A5      G5             E5     D5open
   Q.     H         +E   Q.     H           +E
   |      |          |   |      |            |
   /      /          /   /      /            /

  Gtrs II, VI
   E  E E E +E  E E  E   E  E E E +E  E a E  E
|----------------------|-----------------------|
|----------------------|-----------------------|
|-----5---4-(4)--------|-----------------------|
|-/7----7-------5------|----5---4-(4)--------5-|
|-----------------5--5s|=7----7-------5-5s7----|
|----------------------|-----------------------|
|
| Gtr IV
|  E  E E E +E  E E  E   E  E E E +E  E   E  E
|----------------------|-----------------------|
|--5------3-(3)--------|-----------------------|
|--5--5---4-(4)-4------|-4------2-(2)----------|
|--7----7-5-(5)---5----|-5--5---4-(4)--------5-|
|--------------------7-|-7----7-5-(5)-5---7----|
|----------------------|-----------------------|
|
| Gtr V
|  W                     W
|----------------------|-----------------------|
|----------------------|-----------------------|
|----------------------|-----------------------|
|----------------------|-----------------------|
|----------------------|-----------------------|
|----------------------|-----------------------|


  A5      G5           D5open
   Q.     H             E    +W
   |      |             |     |
   /      /             /     /

   E  E E E +E    E  E  E    +Q    Q           Q     Q
|-------------------------|-------------------------------|
|-------------------------|-------------------------------|
|-----5---4-(4)---------7-|--(7)---7-----------7-----7----|
|-/7----7---------5-----7-|--(7)---7-----------7-----7----|
|--------------------5--5-|--(5)---5-----------5-----5----|
|-------------------------|-------------------------------|
|
|  E  E E E +Q       E  E    +Q    Q           Q     Q
|--5------3-(3)------3----|-------------------------------|
|--5------3-(3)------3----|-------------------------------|
|--5--5---4-(4)------4--2-|--(2)---2-----------2-----2----|
|-------7---------------4-|--(4)---4-----------4-----4----|
|-----------------------5-|--(5)---5-----------5-----5----|
|-------------------------|-------------------------------|
|
|                       ~~~~~~~~~  T     T
|                                     |--3--|
|  H         E    E  E  E    +Q    E  S  S  S  E  E  Q
|-------------------------|-------------------------------|
|-------------------------|-------------------------------|
|-------------------19-14-|-(14)--19p14-19p14h17p14-14\---|
|---------------/17-------|-------------------------------|
|-------------------------|-------------------------------|
|-------------------------|-------------------------------|


  A5                         G5
   Q.                         H                                       +E
   |                          |                                        |
   /                          /                                        /

   E     E        E           E           +E   E           E           E
|---------------------------------------------------------------------------------|
|---------------------------------------------------------------------------------|
|--------5--------------------4-----------(4)-------------------------------------|
|-/7--------------7----------------------------5----------------------------------|
|----------------------------------------------------------5-----------5s=========|
|---------------------------------------------------------------------------------|
|
|  E     E        E           E           +E   E           E           E
|---------------------------------------------------------------------------------|
|--5--------------------------3-----------(3)--3-----------3----------------------|
|--5-----5--------------------4-----------(4)--4-----------4-----------4----------|
|--7--------------7-----------5-----------(5)--5-----------5-----------5----------|
|----------------------------------------------------------------------7----------|
|---------------------------------------------------------------------------------|
|
|           T     T     T     T     T          T     T     T     T     T     T
|  E.       T  T  T  T  T  T  T  T  T  T  +E   T  T  T  T  T  T  T  T  T  T  T  T
|---------------------------------------------------------------------------------|
|---------------------------------------------------------------------------------|
|---------------------------------------------------------------------------------|
|-12b14====17p12-17p12-17p12-17p12-17p12-(12)-17p12-17p12-17p12-17p12-17p12-17p12r|
|---------------------------------------------------------------------------------|
|---------------------------------------------------------------------------------|


  E5             D5open
   Q.             H                +E
   |              |                 |
   /              /                 /

   E     E     E  E    +E   E a  E  E
|-------------------------------------|
|-------------------------------------|
|-------------------------------------|
|--------5--------4----(4)----------5-|
|--7-----------7------------5-5s=7----|
|-------------------------------------|
|
|  E     E     E  E    +Q        Q
|-------------------------------------|
|-------------------------------------|
|--4-----4-----4--2----(2)-------2----|
|--5-----5-----5--4----(4)-------4----|
|--7-----7-----7--5----(5)-------5----|
|-------------------------------------|
|
|  E     E     E  Q         E    Q
|-------------------------------------|
|-------------------------------------|
|-------------12----------------------|
|-12b14-12b14----12b14r====12---10----|
|-------------------------------------|
|-------------------------------------|


  A5              G5              F5
   Q.              H               E
   |               |               |
   /               /               /

   E   E       E   E +E      E  E  E
|----------------------------------------|
|----------------------------------------|
|------5-----------4-(4)----------10-----|
|-/7-----------7-------------5----10-----|
|-------------------------------5--8-----|
|----------------------------------------|
|
|  Q.              H               E
|----------------------------------------|
|--5---------------3---------------------|
|--5---------------4---------------2-----|
|--7---------------5---------------3-----|
|----------------------------------3-----|
|----------------------------------------|
|
|  E   E      +E   E  S   S  E  E  E
|----------------------------------------|
|--------------------12------------------|
|-----12b14==(12)-12-----12r12-12-12b14==|
|----------------------------------------|
|----------------------------------------|
|----------------------------------------|


   +W                           +W                        +W
    |                            |                         |
    /                            /                         /

   +W                           +W                        +W
|----------------------------|-------------------------|---------*|
|----------------------------|-------------------------|---------*|
|-(10)-----------------------|-(10)--------------------|-(10)----*|
|-(10)-----------------------|-(10)--------------------|-(10)----*|
|--(8)-----------------------|--(8)--------------------|--(8)----*|
|----------------------------|-------------------------|---------*|
|
|  +W                           +W                        +W
|----------------------------|-------------------------|---------*|
|----------------------------|-------------------------|---------*|
|--(2)-----------------------|--(2)--------------------|--(2)----*|
|--(3)-----------------------|--(3)--------------------|--(3)----*|
|--(3)-----------------------|--(3)--------------------|--(3)----*|
|----------------------------|-------------------------|---------*|
|
|  +H      S  S  E  +Q          +E   +Q    +H      +E     +W
|----------------------------|-------------------------|---------*|
|----------------------------|-------------------------|---------*|
|-(12)r===12-----------------|-------------------------|---------*|
|------------14-12-(12)b14===|=(12)-(12)--(12)r===(12)-|-(12)----*|
|----------------------------|-------------------------|---------*|
|----------------------------|-------------------------|---------*|


Duration Legend
---------------
W - whole; H - half; Q - quarter; E - 8th; S - 16th; T - 32nd; X - 64th; a - acciaccatura
+ - note tied to previous; . - note dotted; .. - note double dotted
Uncapitalized letters represent notes that are staccato (1/2 duration)
Irregular groupings are notated above the duration line
Duration letters will always appear directly above the note/fret number it represents the
duration for.  Duration letters with no fret number below them represent rests.  Multi-
bar rests are notated in the form Wxn, where n is the number of bars to rest for.  Low
melody durations appear below the staff

Tablature Legend
----------------
 h   - hammer-on
 p   - pull-off
 b   - bend
 pb  - pre-bend
 r   - bend release (if no number after the r, then release immediately)
 /\  - slide into or out of (from/to "nowhere")
 s   - legato slide
 S   - shift slide
  - natural harmonic
[n]  - artificial harmonic
n(n) - tapped harmonic
 ~   - vibrato
 tr  - trill
 T   - tap
 TP  - trem. picking
 PM  - palm muting
\n/  - tremolo bar dip; n = amount to dip
 \n  - tremolo bar down
 n/  - tremolo bar up
/n\  - tremolo bar inverted dip
 =   - hold bend; also acts as connecting device for hammers/pulls
 <>  - volume swell (louder/softer)
 x   - on rhythm slash represents muted slash
 o   - on rhythm slash represents single note slash

Misc Legend
-----------
 |  - bar
||  - double bar
||o - repeat start
o|| - repeat end
*|  - double bar (ending)
 :  - bar (freetime)
 $  - Segno
 &  - Coda
Tempo markers -  = BPM(8/16=s8/s16), where s8 = swing 8ths, s16 = swing 16ths





Comments


Popular 69 Eyes tabs & chords
Gothic Girl 1 Bass Tabs
Stolen Season Bass Tabs
Wasting The Dawn Bass Tabs
Dance D Amour Tabs
Dance D Amour Intro Tabs
Feel Berlin Tabs
Gothic Girl 1 Tabs
Lost Boys Tabs
Rocker Intro Tabs
Wasting The Dawn 1 Tabs


Song lyrics



↑ Back to top | Tablatures and chords are parodies/interpretations of the original songs. You may use it for private study, scholarship, research or language learning purposes only
© 2014 AZChords.com Contact us | Privacy policy | DMCA | Add/correct tabs | Request tabs | Top 50 tabs