>
 >
Sleeping With Lions

Sleeping With Lions Bass Tabs

69 Eyes - Sleeping With Lions chords, tabs, tablatures, lyrics

Guitar lessons | Add/correct | Request | Top 50 tabs Artists:  A B C D E F G H I J K L M N O P Q R S T U V W X Y Z 0-9

Sleeping With Lions Bass Tabs – 69 Eyes

CD, Sheet music, Poster

Do you like Sleeping With Lions? Share with your friends now
Bass TabsTabsTabs v2
#------------------------------------------------------------------------------##

                         SLEEPING WITH LIONS (Bassline)
                           As recorded by The 69 Eyes
                        (From the 2000 Album BLESSED BE)

Words by Jyrki69

Music by Bazie
Arranged by The 69 Eyes

Gtr I (Db Ab Db Gb) - 'Untitled'

 Intro
  Q=114
 4/4
  Gtr I
  Wx4
|--------||
|--------||
|--------||
|--------||


   Pre-Verse
    Q  E E +E  E E E   E +E  E E E E E E
||-------------------|-------------------|
||o------------------|-------------------|
||o------------------|-------------------|
||--7--7-5-(5)-5-5-5-|-2-(2)-2-0-0-0-0-0-|


  E +E  E E E E E E   +E  E E E E E E E
|-------------------|---------------------||
|-------------------|--------------------o||
|-------------------|--------------------o||
|-7-(7)-7-5-5-5-5-0-|-(0)-0-0-0-0-0-0-0---||


   Verse
    $
    E E E E E E E E   E E E E E E E E   E E E E E E E E   E E E E E E E E   3x
||------------------|-----------------|-----------------|-------------------||
||o-----------------|-----------------|-----------------|------------------o||
||o-----------------|-----------------|-----------------|-3-3-3-3----------o||
||--7-7-7-7-7-7-7-7-|-7-7-7-7-7-7-7-7-|-3-3-3-3-3-3-3-3-|---------5-5-5-5---||


                                                               To Coda
  E E E E E E E E   E E E E E E E E   E E E E E E E E   E E E E E E E E
|-----------------|-----------------|-----------------|-----------------||
|-----------------|-----------------|-----------------|-----------------||
|-----------------|-----------------|-----------------|-5-5-5-5-5-5-5-5-||
|-7-7-7-7-7-7-7-7-|-2-2-2-2-2-2-2-2-|-3-3-3-3-3-3-3-3-|-----------------||


 Chorus
  E +E  E E E E E E   +E  E E E E E E E
|-------------------|-------------------|
|-------------------|-------------------|
|-------------------|-------------------|
|-7-(7)-7-7-7-7-7-5-|-(5)-5-5-5-5-5-5-5-|


  E +E  E E E E E E   +E  E E +E  E E E E
|-------------------|---------------------|
|-------------------|---------------------|
|-------------------|---------------------|
|-2-(2)-2-2-2-2-2-3-|-(3)-3-3-(3)---5-5-5-|


  E +E  E E E E E E   +E  E E E E E E E
|-------------------|-------------------|
|-------------------|-------------------|
|-------------------|-------------------|
|-7-(7)-7-7-7-7-7-5-|-(5)-5-5-5-5-5-5-5-|


  E +E  E E E E E E   +E  E E +E  E E E E
|-------------------|---------------------||
|-------------------|---------------------||
|-------------------|---------------3-3-3-||
|-2-(2)-2-2-2-2-2-3-|-(3)-3-3-(3)---------||


 Pre-Verse
  Q  E E +E  E E E   E +E  E E E E E E
|------------------|-------------------|
|------------------|-------------------|
|------------------|-------------------|
|-7--7-5-(5)-5-5-5-|-2-(2)-2-0-0-0-0-0-|


                          D.S. al Coda
  E +E  E E E E E E   +E  E E E E E E E
|-------------------|-------------------||
|-------------------|-------------------||
|-------------------|-------------------||
|-7-(7)-7-5-5-5-5-0-|-(0)-0-0-0-0-0-0-0-||


 Chorus
  &
  E +E  E E E E E E   +E  E E E E E E E
|-------------------|-------------------|
|-------------------|-------------------|
|-------------------|-------------------|
|-7-(7)-7-7-7-7-7-5-|-(5)-5-5-5-5-5-5-5-|


  E +E  E E E E E E   +E  E E +E  E E E E
|-------------------|---------------------|
|-------------------|---------------------|
|-------------------|---------------------|
|-2-(2)-2-2-2-2-2-3-|-(3)-3-3-(3)---5-5-5-|


  E +E  E E E E E E   +E  E E E E E E E
|-------------------|-------------------|
|-------------------|-------------------|
|-------------------|-------------------|
|-7-(7)-7-7-7-7-7-5-|-(5)-5-5-5-5-5-5-5-|


  E +E  E E E E E E   +E  E E +E  E E E E
|-------------------|---------------------|
|-------------------|---------------------|
|-------------------|---------------5-5-5-|
|-2-(2)-2-2-2-2-2-3-|-(3)-3-3-(3)---------|


  E +E  E E E E E E   +E  E E E E E E E
|-------------------|-------------------|
|-------------------|-------------------|
|-------------------|-------------------|
|-7-(7)-7-7-7-7-7-5-|-(5)-5-5-5-5-5-5-5-|


  E +E  E E E E E E   +E  E E +E  E E E E
|-------------------|---------------------|
|-------------------|---------------------|
|-------------------|---------------------|
|-2-(2)-2-2-2-2-2-3-|-(3)-3-3-(3)---5-5-5-|


  E +E  E E E E E E   +E  E E E E E E E
|-------------------|-------------------|
|-------------------|-------------------|
|-------------------|-------------------|
|-7-(7)-7-7-7-7-7-5-|-(5)-5-5-5-5-5-5-5-|


  E +E  E E E E E E   +E  E E +E  E E E E
|-------------------|---------------------||
|-------------------|---------------------||
|-------------------|---------------3-3-3-||
|-2-(2)-2-2-2-2-2-3-|-(3)-3-3-(3)---------||


   Guitar Solo
    Q  E E +E  E E E   E +E  E E E E E E
||-------------------|-------------------|
||o------------------|-------------------|
||o------------------|-------------------|
||--7--7-5-(5)-5-5-5-|-2-(2)-2-0-0-0-0-0-|


  E +E  E E E E E E   +E  E E E E E E E
|-------------------|---------------------||
|-------------------|--------------------o||
|-------------------|--------------------o||
|-7-(7)-7-5-5-5-5-0-|-(0)-0-0-0-0-0-0-0---||


 Chorus
  E +E  E E E E E E   +E  E E E E E E E
|-------------------|-------------------|
|-------------------|-------------------|
|-------------------|-------------------|
|-7-(7)-7-7-7-7-7-5-|-(5)-5-5-5-5-5-5-5-|


  E +E  E E E E E E   +E  E E +E  E E E E
|-------------------|---------------------|
|-------------------|---------------------|
|-------------------|---------------------|
|-2-(2)-2-2-2-2-2-3-|-(3)-3-3-(3)---5-5-5-|


  E +E  E E E E E E   +E  E E E E E E E
|-------------------|-------------------|
|-------------------|-------------------|
|-------------------|-------------------|
|-7-(7)-7-7-7-7-7-5-|-(5)-5-5-5-5-5-5-5-|


  E +E  E E E E E E   +E  E E +E  E E E E
|-------------------|---------------------|
|-------------------|---------------------|
|-------------------|---------------5-5-5-|
|-2-(2)-2-2-2-2-2-3-|-(3)-3-3-(3)---------|


  E +E  E E E E E E   +E  E E E E E E E
|-------------------|-------------------|
|-------------------|-------------------|
|-------------------|-------------------|
|-7-(7)-7-7-7-7-7-5-|-(5)-5-5-5-5-5-5-5-|


  E +E  E E E E E E   +E  E E +E  E E E E
|-------------------|---------------------|
|-------------------|---------------------|
|-------------------|---------------------|
|-2-(2)-2-2-2-2-2-3-|-(3)-3-3-(3)---5-5-5-|


  E +E  E E E E E E   +E  E E E E E E E
|-------------------|-------------------|
|-------------------|-------------------|
|-------------------|-------------------|
|-7-(7)-7-7-7-7-7-5-|-(5)-5-5-5-5-5-5-5-|


  E +E  E E E E E E   +E  E E +E  E E E E
|-------------------|---------------------||
|-------------------|---------------------||
|-------------------|---------------3-3-3-||
|-2-(2)-2-2-2-2-2-3-|-(3)-3-3-(3)---------||


 Outro
  Q  E E +E  E E E   E +E  E E E E E E   E +E  E E E E E E   +E  E E E E E E E
|------------------|-------------------|-------------------|-------------------|
|------------------|-------------------|-------------------|-------------------|
|------------------|-------------------|-------------------|-------------------|
|-7--7-5-(5)-5-5-5-|-2-(2)-2-0-0-0-0-0-|-7-(7)-7-5-5-5-5-0-|-(0)-0-0-0-0-0-0-0-|


  Q  E E +E  E E E   E +E  E E E E E E   E +E  E E +E  E E E
|------------------|-------------------|---------------------|
|------------------|-------------------|---------------------|
|------------------|-------------------|---------------------|
|-7--7-5-(5)-5-5-5-|-2-(2)-2-0-0-0-0-0-|-7-(7)-7-5-(5)-5-5-3-|


  +W           +W           +W
|------------|------------|--------*|
|------------|------------|--------*|
|------------|------------|--------*|
|-(3)--------|-(3)--------|-(3)----*|


Duration Legend
---------------
W - whole; H - half; Q - quarter; E - 8th; S - 16th; T - 32nd; X - 64th; a - acciaccatura
+ - note tied to previous; . - note dotted; .. - note double dotted
Uncapitalized letters represent notes that are staccato (1/2 duration)
Irregular groupings are notated above the duration line
Duration letters will always appear directly above the note/fret number it represents the
duration for.  Duration letters with no fret number below them represent rests.  Multi-
bar rests are notated in the form Wxn, where n is the number of bars to rest for.  Low
melody durations appear below the staff

Tablature Legend
----------------
 h   - hammer-on
 p   - pull-off
 b   - bend
 pb  - pre-bend
 r   - bend release (if no number after the r, then release immediately)
 /\  - slide into or out of (from/to "nowhere")
 s   - legato slide
 S   - shift slide
  - natural harmonic
[n]  - artificial harmonic
n(n) - tapped harmonic
 ~   - vibrato
 tr  - trill
 T   - tap
 TP  - trem. picking
 PM  - palm muting
\n/  - tremolo bar dip; n = amount to dip
 \n  - tremolo bar down
 n/  - tremolo bar up
/n\  - tremolo bar inverted dip
 =   - hold bend; also acts as connecting device for hammers/pulls
 <>  - volume swell (louder/softer)
 x   - on rhythm slash represents muted slash
 o   - on rhythm slash represents single note slash

Misc Legend
-----------
 |  - bar
||  - double bar
||o - repeat start
o|| - repeat end
*|  - double bar (ending)
 :  - bar (freetime)
 $  - Segno
 &  - Coda
Tempo markers -  = BPM(8/16=s8/s16), where s8 = swing 8ths, s16 = swing 16ths





Comments


Popular 69 Eyes tabs & chords
Crashing High Bass Tabs
Devils Bass Tabs
Borderline 1 Chords
Chair Chords
Framed In Blood Tabs
Gothic Girl 1 Tabs
Lost Boys 1 Tabs
Rocker Intro Tabs
Shadow Of Your Love Intro Tabs
Brandon Lee Ukulele


Song lyrics



↑ Back to top | Tablatures and chords are parodies/interpretations of the original songs. You may use it for private study, scholarship, research or language learning purposes only
© 2014 AZChords.com Contact us | Privacy policy | DMCA | Add/correct tabs | Request tabs | Top 50 tabs