>
 >
Lost Boys 1

Lost Boys 1 Guitar Tabs

69 Eyes - Lost Boys 1 chords, tabs, tablatures, lyrics

Guitar lessons | Add/correct | Request | Top 50 tabs Artists:  A B C D E F G H I J K L M N O P Q R S T U V W X Y Z 0-9

Lost Boys 1 Guitar Tabs – 69 Eyes

CD, Sheet music, Poster

Do you like Lost Boys 1? Share with your friends now
Bass TabsTabsTabs v2
#------------------------------------------------------------------------------##

                                    LOST BOYS
                           As recorded by The 69 Eyes
                          (From the 2004 Album DEVILS)

Words by Jyrki

Music by Bazie
Arranged by The 69 Eyes

Gtr I (E A D G B E) - 'dist'
Gtr II (E A D G B E) - 'dist'
Gtr III (E A D G B E) - 'piano'
Gtr IV (E A D G B E) - '3rd Guitar'
Gtr V (E A D G B E) - 'Muted'

 Intro
  Q=156
  N.C.
 4/4
  Gtr I
  E  E E  E E E E E   E E  E E  E  E E E
|-------------------|--------------------|
|-------------------|--------------------|
|-6-(6)6-(6)6-6---6-|---6-(6)6-(6)-6---6-|
|-6h=7p6h=7p6-7---6-|---7p=6h7p=6--7---6-|
|-------------------|--------------------|
|-------------------|--------------------|


  E E  E E  E   E  E  E   Q  E E E Q   E
|-----------------------|----------------|
|-----------------------|----------------|
|---6-(6)6-(6)-(6)(6)-6-|----9---9-9\----|
|---7p=6h7p=6--(6)(6)-6-|----9---9-9\----|
|---------------7h=9----|----------------|
|-----------------------|----------------|


  E  E E  E E E E E   E E  E E  E  E E E
|-------------------|--------------------|
|-------------------|--------------------|
|-6-(6)6-(6)6-6---6-|---6-(6)6-(6)-6---6-|
|-6h=7p6h=7p6-7---6-|---7p=6h7p=6--7---6-|
|-------------------|--------------------|
|-------------------|--------------------|
|
| Gtr II
| Q    E  E E E E E   Q    E E  E  E E E
|-------------------|--------------------|
|-------------------|--------------------|
|-------------------|--------------------|
|-------------------|--------------------|
|------4----2-4---4-|------4----2--4---4-|
|-------------------|--------------------|


  E E  E E  E   E  E  E   Q  E E E Q      E
|-----------------------|-----------------------|
|-----------------------|-----------------------|
|---6-(6)6-(6)-(6)(6)-6-|----9---9-9\-----------|
|---7p=6h7p=6--(6)(6)-6-|----9---9-9\-----------|
|---------------7h=9----|-----------------------|
|-----------------------|-----------------------|
|
| Q    E Q      E  E  E   Q  E Q   Q.        a
|-----------------------|-----------------------|
|-----------------------|-----------------------|
|-----------------------|-----------------------|
|------7----------------|-----------------------|
|---------------7-----4-|----9-----7b7.5----(7)-|
|-----------------------|-----------------------|


  E  E E  E E E E E   E E  E E  E  E E E
|-------------------|--------------------|
|-------------------|--------------------|
|-6-(6)6-(6)6-6---6-|---6-(6)6-(6)-6---6-|
|-6h=7p6h=7p6-7---6-|---7p=6h7p=6--7---6-|
|-------------------|--------------------|
|-------------------|--------------------|
|
| Q    E  E E E E E   Q    E E  E  E E E
|-------------------|--------------------|
|-------------------|--------------------|
|-------------------|--------------------|
|-------------------|--------------------|
|------4----2-4---4-|------4----2--4---4-|
|-------------------|--------------------|
|
| Gtr IV
| W                   W
|-------------------|--------------------|
|-------------------|--------------------|
|-------------------|--------------------|
|-------------------|--------------------|
|-------------------|--------------------|
|-------------------|--------------------|


  E E  E E  E   E  E  E   Q  E E E Q         E
|-----------------------|--------------------------|
|-----------------------|--------------------------|
|---6-(6)6-(6)-(6)(6)-6-|----9---9-9\--------------|
|---7p=6h7p=6--(6)(6)-6-|----9---9-9\--------------|
|---------------7h=9----|--------------------------|
|-----------------------|--------------------------|
|
| Q    E Q      E  E  E   Q  E Q   Q.           a
|-----------------------|--------------------------|
|-----------------------|--------------------------|
|-----------------------|--------------------------|
|------7----------------|--------------------------|
|---------------7-----4-|----9-----7b7.5-------(7)-|
|-----------------------|--------------------------|
|
| W                       H      E E     +Q
|-----------------------|--------------------------|
|-----------------------|--------------------------|
|-----------------------|----------6b9===(6)r======|
|-----------------------|--------------------------|
|-----------------------|--------------------------|
|-----------------------|--------------------------|


   E   E  E  E E E E E    E  E  E E  E  E E E
|----------------------|----------------------|
|----------------------|----------------------|
|--6--(6)-6-(6)6-6---6-|-----6-(6)6-(6)-6---6-|
|--6h==7p=6h=7p6-7---6-|-----7p=6h7p=6--7---6-|
|----------------------|----------------------|
|----------------------|----------------------|
|
|  Q      E  E E E E E    Q     E E  E  E E E
|----------------------|----------------------|
|----------------------|----------------------|
|----------------------|----------------------|
|----------------------|----------------------|
|---------4----2-4---4-|--------4----2--4---4-|
|----------------------|----------------------|
|
| +E  +H..               +W
|----------------------|----------------------|
|----------------------|----------------------|
|-(6)-(6)--------------|-(6)------------------|
|----------------------|----------------------|
|----------------------|----------------------|
|----------------------|----------------------|


   E  E  E E  E   E  E  E    Q   E E E Q       E
|-------------------------|---------------------------|
|-------------------------|---------------------------|
|-----6-(6)6-(6)-(6)(6)-6-|------9---9-9\-------------|
|-----7p=6h7p=6--(6)(6)-6-|------9---9-9\-------------|
|-----------------7h=9----|---------------------------|
|-------------------------|---------------------------|
|
|  Q     E Q      E  E  E    Q   E Q   Q.          a
|-------------------------|---------------------------|
|-------------------------|---------------------------|
|-------------------------|---------------------------|
|--------7----------------|---------------------------|
|-----------------7-----4-|------9-----7b7.5------(7)-|
|-------------------------|---------------------------|
|
| +W                        +H       E Q      +E
|-------------------------|---------------------------|
|-------------------------|---------------------------|
|-(6)---------------------|-(6)--------4------(4)s====|
|-------------------------|---------------------------|
|-------------------------|---------------------------|
|-------------------------|---------------------------|


  C#5                                      B5     F#5
  W              +W           +W           H    E   Q.
|--------------|------------|------------|-----------------||
|--------------|------------|------------|-----------------||
|-6------------|-(6)--------|-(6)--------|-4----x----------||
|-6------------|-(6)--------|-(6)--------|-4----x---4------||
|-4------------|-(4)--------|-(4)--------|-2----x---4------||
|--------------|------------|------------|----------2------||
|
| W              +W            W           H    E   Q.
|--------------|------------|------------|-----------------||
|--------------|------------|------------|-----------------||
|-6------------|-(6)--------|-(6)--------|-4----x----------||
|-6------------|-(6)--------|-(6)--------|-4----x----------||
|-4------------|-(4)--------|-28\--------|-2----x-(14)\----||
|--------------|------------|-28\--------|--------(14)\----||
|
| E +H..         +W           +W           W
|--------------|------------|------------|-----------------||
|--------------|------------|------------|-----------------||
|-6-(6)--------|-(6)--------|-(6)--------|-----------------||
|--------------|------------|------------|-----------------||
|--------------|------------|------------|-----------------||
|--------------|------------|------------|-----------------||


   Verse
    C#5                                                   E5   F#5
    Gtrs I, II
    E E E E E E E E   E E E E E E E E   E E E E E E E E   H    H
||------------------|-----------------|-----------------|-----------|
||o-----------------|-----------------|-----------------|-----------|
||------------------|-----------------|-----------------|-----------|
||--x-x-6---x-6---6-|---x-6---x-6---6-|---x-6---x-6---6-|-2----4----|
||o-x-x-4---x-4---4-|---x-4---x-4---4-|---x-4---x-4---4-|-2----4----|
||------------------|-----------------|-----------------|-0----2----|


  C#5               A5                F#5
  E E E E E E E E   E E E E E E E E   E E E E E E E E
|-----------------|-----------------|-----------------|
|-----------------|-----------------|-----------------|
|-----------------|-----------------|-----------------|
|-x-x-6---x-6---6-|-----------------|-----------------|
|-x-x-4---x-4---4-|---x-7---x-7---7-|---x-4---x-4---4-|
|-----------------|---x-5---x-5---5-|---x-2---x-2---2-|


 1.                2.
             E5              F#5/C#
  E E E E Q  Q      E E E Q  E E E
|----------------||------------------|
|---------------o||----------7-7-7---|
|----------------||----------6-6-6---|
|---------4--2---||------------------|
|---x-4---4--2--o||---x-4----4-4-4---|
|---x-2---2--0---||---x-2------------|


  E5                       F#5
  W          +W            W          +W
|----------|-------------|----------|--------||
|----------|-------------|----------|--------||
|----------|-------------|----------|--------||
|-2--------|-(2)---------|-4--------|-(4)----||
|-2--------|-(2)---------|-4--------|-(4)----||
|-0--------|-(0)---------|-2--------|-(2)----||
|
| Gtr III
| W           H     H      W          +W
|----------|-------------|----------|--------||
|----------|-------------|----------|--------||
|----------|-------------|----------|--------||
|----------|--------6----|-4--------|-(4)----||
|----------|-------------|----------|--------||
|----------|-------------|----------|--------||


   Chorus
    C#5               E5
    E E E E E E E E    E E  E E  E E  E E
||------------------|---------------------|
||o-----------------|---------------------|
||------------------|---------------------|
||--x-x-6---x-6---6-|----x--9----x-9----9-|
||o-x-x-4---x-4---4-|----x--7----x-7----7-|
||------------------|---------------------|
|
|   E E E E E E E E    E E  E E  E E  E E
||----------------9-|---------------------|
||o-9---9---9---9---|-12---12---12---12---|
||----6---6---6-----|----9----9----9----9-|
||------------------|---------------------|
||o-----------------|---------------------|
||------------------|---------------------|


  A5                 D5
  E E E  E E E E E   E  E E  E E  E E  E
|------------------|----------------------||
|------------------|---------------------o||
|------------------|----------------------||
|------------------|----x-7----x--7----7--||
|---x-7----x-7---7-|----x-5----x--5----5-o||
|---x-5----x-5---5-|----------------------||
|
| E E E  E E E E E   E  E E  E E  E E  E
|------------------|----------------------||
|-------10---------|---10---10---10---10-o||
|-9---9----9---9---|-7----7----7----7-----||
|---7--------7---7-|----------------------||
|------------------|---------------------o||
|------------------|----------------------||


 Verse
  N.C.
                                   Gtr I
  W          W          W          Q  H      Q
|----------|----------|----------|----------------|
|----------|----------|----------|----------------|
|----------|----------|----------|----9-----[8]---|
|----------|----------|----------|----------------|
|----------|----------|----------|----------------|
|----------|----------|----------|----------------|
|
| W          W          W          H     H
|----------|----------|----------|----------------|
|----------|----------|----------|----------------|
|----------|----------|----------|----------------|
|----------|----------|----------|-------1--------|
|----------|----------|----------|----------------|
|----------|----------|----------|-0--------------|


                                                  F#5     E5
                                                  Gtr I
       >
  +Q   H.        +W           +W           +H      Q      Q
|--------------|------------|------------|--------------------|
|--------------|------------|------------|--------------------|
|-(8)h=9-------|-(9)--------|-(9)--------|-(9)----------------|
|--------------|------------|------------|---------4------2---|
|--------------|------------|------------|---------4------2---|
|--------------|------------|------------|---------2------0---|
|
|                                                 Gtr II
|  W             +W            W            H      E  +E  Q
|--------------|------------|------------|--------------------|
|--------------|------------|------------|--------------------|
|--------------|------------|------------|--------11-(11)S9---|
|--------------|------------|------------|--------11-(11)S9---|
|--------------|------------|------------|---------9--(9)S7---|
|--0-----------|-(0)--------|------------|--------------------|


  C#5                                                   E5      F#5
  E E E E E E E E   E E E E E E E E   E E E E E E E E    H       H
|-----------------|-----------------|-----------------|---------------------|
|-----------------|-----------------|-----------------|---------------------|
|-----------------|-----------------|-----------------|---------------------|
|-x-x-6---x-6---6-|---x-6---x-6---6-|---x-6---x-6---6-|--2-------4----------|
|-x-x-4---x-4---4-|---x-4---x-4---4-|---x-4---x-4---4-|--2-------4----------|
|-----------------|-----------------|-----------------|--0-------2----------|
|
| PM|     PM----------|     PM| ~     PM|   PM------|    ~~~     ~~~
| E E E E E E E E   E E E E E E Q     E E E E E E E E    Q.   E  Q    Q
|-----7-----------|-----7-----------|-----7-----------|---------------------|
|---------5-7-5---|-----------5-7---|---------5-7-5---|---------------------|
|---x-----------6-|---x-----6-------|---x-----------6-|-[4]-----[3]---------|
|-x---------------|-x---------------|-x-----x---------|--------------[6]\---|
|-----------------|-----------------|-----------------|---------------------|
|-----------------|-----------------|-----------------|---------------------|


  C#5               A5                F#5                        C#5
  E E E E E E E E   E E E E E E E E   E E E E E E E E   E E E Q  E E E
|-----------------|-----------------|-----------------|-----------------|
|-----------------|-----------------|-----------------|-----------------|
|-----------------|-----------------|-----------------|-----------------|
|-x-x-6---x-6---6-|-----------------|-----------------|----------6-6-6--|
|-x-x-4---x-4---4-|---x-7---x-7---7-|---x-4---x-4---4-|---x-4----4-4-4--|
|-----------------|---x-5---x-5---5-|---x-2---x-2---2-|---x-2-----------|
|
| PM|   PM------------|     PM|   PM----|   PM--|   PM----|   PM
| E E E E E E E E   E E E E E E E E   E E E E E E E E   E E E Q  E E E
|-----7-----------|-----5-------5---|-----------------|-----------------|
|---------5-7-5---|-----------------|-----7-------7---|-----7----7-7-7--|
|---x-----------6-|---x-------x-----|---x-------x-----|---x------6-6-6--|
|-x-----x---------|-x-------x-------|-x-------x-------|-x---------------|
|-----------------|-----------------|-----------------|-----------------|
|-----------------|-----------------|-----------------|-----------------|


  E5                            F#5
  W          +W                  W          +W
|----------|------------------|-----------|--------------------||
|----------|------------------|-----------|--------------------||
|----------|------------------|-----------|--------------------||
|-2--------|-(2)--------------|--4--------|-(4)----------------||
|-2--------|-(2)--------------|--4--------|-(4)----------------||
|-0--------|-(0)--------------|--2--------|-(2)----------------||
|
| W           E  E E E +H        W           E  E E  E  +H
|----------|------------------|-----------|--------------------||
|----------|------------------|-----------|--------------------||
|-9--------|--9--x-x-9-(9)----|-11--------|-11--x-x-11-(11)----||
|-9--------|--9--x-x-9-(9)----|-11--------|-11--x-x-11-(11)----||
|-7--------|--7--x-x-7-(7)----|--9--------|--9--x-x--9--(9)----||
|----------|------------------|-----------|--------------------||
|
|                      Gtr III
| W           H         H        W          +H           H
|----------|------------------|-----------|--------------------||
|----------|------------------|-----------|--------------------||
|----------|------------------|-----------|--------------------||
|----------|------------6-----|--4--------|-(4)----------------||
|----------|------------------|-----------|--------------------||
|----------|------------------|-----------|--------------------||


   Chorus
    C#5               E5
    Gtrs I, II
    E E E E E E E E    E E  E E  E E  E E
||------------------|---------------------|
||o-----------------|---------------------|
||------------------|---------------------|
||--x-x-6---x-6---6-|----x--9----x-9----9-|
||o-x-x-4---x-4---4-|----x--7----x-7----7-|
||------------------|---------------------|
|
|   Gtr III
|   E E E E E E E E    E E  E E  E E  E E
||----------------9-|---------------------|
||o-9---9---9---9---|-12---12---12---12---|
||----6---6---6-----|----9----9----9----9-|
||------------------|---------------------|
||o-----------------|---------------------|
||------------------|---------------------|


  A5                 D5
  E E E  E E E E E   E  E E  E E  E E  E  4x
|------------------|----------------------||
|------------------|---------------------o||
|------------------|----------------------||
|------------------|----x-7----x--7----7--||
|---x-7----x-7---7-|----x-5----x--5----5-o||
|---x-5----x-5---5-|----------------------||
|
| E E E  E E E E E   E  E E  E E  E E  E  4x
|------------------|----------------------||
|-------10---------|---10---10---10---10-o||
|-9---9----9---9---|-7----7----7----7-----||
|---7--------7---7-|----------------------||
|------------------|---------------------o||
|------------------|----------------------||


 Guitar Solo
  C#5/Ab                   N.C.                  B5         F#5
  Gtr I
                            PM-----|     PM--|
   W          +W            E  E E E a E E E E    H     +E  E  E E
|-----------|------------|---------------------|-------------------|
|-----------|------------|---------------------|---------------5-7-|
|-----------|------------|---------------------|------------6------|
|--6--------|-(6)--------|-----------------2-4-|-[6]----(6)--------|
|--4--------|-(4)--------|---------------4-----|-------------------|
|--4--------|-(4)--------|--0--0-4-7s0s4-------|-------------------|
|
| Gtr II
|  W           W            W                     H      E  Q.
|-----------|------------|---------------------|-------------------|
|-----------|------------|---------------------|-------------------|
|--6--------|-(6)--------|---------------------|--4------x---------|
|--6--------|-(6)--------|---------------------|--4------x--4------|
|--4--------|-(4)--------|-28\-----------------|--2------x--4------|
|-14s=======|==9\--------|-28\-----------------|------------2------|


  (A5)                                        (B5)
                                    PM------------|   PM|   PM
  a E E E a E E E a E E   E a E E E E E E E   E E E E E E E E
|-7s9-9-9-7s9-9-9-7s9-9-|-9-7s9-9-9---------|-------7-----5----|
|-7s9-9-9-7s9-9-9-7s9-9-|-9-7s9-9-9-7-5-----|---x-x---x-x---x--|
|-----------------------|---------------6-4-|-x----------------|
|-----------------------|-------------------|------------------|
|-----------------------|-------------------|------------------|
|-----------------------|-------------------|------------------|
|
|   E E E   Q   E   E E   E   E E Q   E E E   E E E Q   E E E
|-----------------------|-------------------|------------------|
|-----------------------|-------------------|------------------|
|-----------------------|-------------------|------------------|
|-------7---------------|-------7-----------|-----9------------|
|---------------7-----7-|-------------7---7-|-----------9---9--|
|---5-5-----------------|-5---5-------------|-7-7--------------|


                      C#5
  PM
  E E E e Q     Q     Q    E E E  E Q
|---4-5-4-5-----5---|------8-9-8--9------|
|-x-------7b8r==5---|------8-9-8--9------|
|-------------------|--------------------|
|-------------------|--------------------|
|-------------------|--------------------|
|-------------------|--------------------|
|
| E E E Q     E E E   E E  E E E  E E  E
|-------------------|--------------------|
|-------------------|--------------------|
|-------------------|--------------------|
|-----9-------------|--------------------|
|-------------9---9-|-x-x-11---x-11---11-|
|-7-7---------------|-x-x--9---x--9----9-|


                 N.C.    (A5)
                   ~
  E E  E E   +E  E Q     Q   E E E E Q
|-8-9--8---------------|-----8-9-8-9------|
|-8-9--8-7b8r(7)-------|-----8-9-8-9------|
|----------------6-9---|------------------|
|----------------------|------------------|
|----------------------|------------------|
|----------------------|------------------|
|
| E E  E E    E  E E E   E E E Q   E E E
|----------------------|------------------|
|----------------------|------------------|
|----------------------|------------------|
|----------------------|-----7------------|
|---x-11------x--9---9-|-----------7---7--|
|---x--9------x--------|-5-5--------------|


                    F#5      N.C.
                         ~~~
  E E E  Q      E E E   +H       +Q     E  E
|-9-9-9-12b13r=12-9-9-|-(9)------(9)\-----19b21==|
|---------------------|--------------------------|
|---------------------|--------------------------|
|---------------------|--------------------------|
|---------------------|--------------------------|
|---------------------|--------------------------|
|
| E E E  Q      E E E   +Q   E Q      E E  E
|---------------------|--------------------------|
|---------------------|--------------------------|
|---------------------|--------------------------|
|-----7-------------4-|-(4)--4--------2----4-----|
|---------------7---4-|-(4)----------------------|
|-5-5---------------2-|-(2)----------------------|


                        ~~~~~
   +E.  +S   E  E      +Q.      E
|-(19)r(19)-16-19b21==(19)r-------||
|---------------------------------||
|---------------------------------||
|---------------------------------||
|---------------------------------||
|---------------------------------||
|
|   Q        E  Q           E E E
|---------------------------------||
|---------------------------------||
|---------------------------------||
|------------4--------------4-4-4-||
|---------------------------------||
|---------------------------------||


 Out-Chorus
  C#5               E5
  Gtr V
  E E E E E E E E   E E E E E E    E  E
|-----------------|----------------------|
|-----------------|----------------------|
|-----------------|----------------------|
|-x-x-6---x-6---6-|---x-9---x-9-------9--|
|-x-x-4---x-4---4-|---x-7---x-7-------7--|
|-----------------|----------------------|
|
| Gtr IV
| W                 H       E Q      +E
|-----------------|----------------------|
|-----------------|----------------------|
|-----------------|-----------6b9====(6)r|
|-----------------|----------------------|
|-----------------|----------------------|
|-----------------|----------------------|


  A5                     D5
   E   E   E E E E E E    E  E E E E E E E
|----------------------|--------------------|
|----------------------|--------------------|
|----------------------|--------------------|
|----------------------|-----x-7---x-7---7--|
|------x---7---x-7---7-|-----x-5---x-5---5--|
|------x---5---x-5---5-|--------------------|
|
|      >
| +E  +H..               +W
|----------------------|--------------------|
|----------------------|--------------------|
|-(6)-(6)--------------|-(6)----------------|
|----------------------|--------------------|
|----------------------|--------------------|
|----------------------|--------------------|


  C#5                 E5
   E  E E E E E E E    E  E E E E E  E  E
|-------------------|---------------------|
|-------------------|---------------------|
|-------------------|---------------------|
|--x--x-6---x-6---6-|-----x-9---x-9-----9-|
|--x--x-4---x-4---4-|-----x-7---x-7-----7-|
|-------------------|---------------------|
|
| +W                  +H        E E +Q
|-------------------|---------------------|
|-------------------|---------------------|
|-(6)---------------|-(6)---------4-(4)s==|
|-------------------|---------------------|
|-------------------|---------------------|
|-------------------|---------------------|


  A5                D5
  E E E E E E E E    E  E E E E E E E
|-----------------|--------------------|
|-----------------|--------------------|
|-----------------|--------------------|
|-----------------|-----x-7---x-7---7--|
|---x-7---x-7---7-|-----x-5---x-5---5--|
|---x-5---x-5---5-|--------------------|
|
| >
| W                 +W
|-----------------|--------------------|
|-----------------|--------------------|
|-6---------------|-(6)----------------|
|-----------------|--------------------|
|-----------------|--------------------|
|-----------------|--------------------|


  C#5               E5
  Gtrs I, II
  E E E E E E E E    E E  E E  E E  E E
|-----------------|---------------------|
|-----------------|---------------------|
|-----------------|---------------------|
|-x-x-6---x-6---6-|----x--9----x-9----9-|
|-x-x-4---x-4---4-|----x--7----x-7----7-|
|-----------------|---------------------|
|
| Gtr III
| E E E E E E E E    E E  E E  E E  E E
|---------------9-|---------------------|
|-9---9---9---9---|-12---12---12---12---|
|---6---6---6-----|----9----9----9----9-|
|-----------------|---------------------|
|-----------------|---------------------|
|-----------------|---------------------|


  A5                 D5
  E E E  E E E E E   E  E E  E E  E E  E
|------------------|----------------------|
|------------------|----------------------|
|------------------|----------------------|
|------------------|----x-7----x--7----7--|
|---x-7----x-7---7-|----x-5----x--5----5--|
|---x-5----x-5---5-|----------------------|
|
| E E E  E E E E E   E  E E  E E  E E  E
|------------------|----------------------|
|-------10---------|---10---10---10---10--|
|-9---9----9---9---|-7----7----7----7-----|
|---7--------7---7-|----------------------|
|------------------|----------------------|
|------------------|----------------------|


  C#5               E5
  E E E E E E E E    E E  E E  E E  E E
|-----------------|---------------------|
|-----------------|---------------------|
|-----------------|---------------------|
|-x-x-6---x-6---6-|----x--9----x-9----9-|
|-x-x-4---x-4---4-|----x--7----x-7----7-|
|-----------------|---------------------|
|
| Gtr IV
| W                  W
|-----------------|---------------------|
|-----------------|---------------------|
|-----------------|---------------------|
|-----------------|---------------------|
|-----------------|---------------------|
|-----------------|---------------------|
|
| Gtr III
| E E E E E E E E    E E  E E  E E  E E
|---------------9-|---------------------|
|-9---9---9---9---|-12---12---12---12---|
|---6---6---6-----|----9----9----9----9-|
|-----------------|---------------------|
|-----------------|---------------------|
|-----------------|---------------------|


  A5                 D5
  E E E  E E E E E   E  E E  E E  E    E  E
|------------------|---------------------------|
|------------------|---------------------------|
|------------------|---------------------------|
|------------------|----x-7----x--7-------7----|
|---x-7----x-7---7-|----x-5----x--5-------5----|
|---x-5----x-5---5-|---------------------------|
|
| W                  H         E  Q      +E
|------------------|---------------------------|
|------------------|---------------------------|
|------------------|--------------6b9====(6)r==|
|------------------|---------------------------|
|------------------|---------------------------|
|------------------|---------------------------|
|
| E E E  E E E E E   E  E E  E E  E    E  E
|------------------|---------------------------|
|-------10---------|---10---10---10------10----|
|-9---9----9---9---|-7----7----7-------7-------|
|---7--------7---7-|---------------------------|
|------------------|---------------------------|
|------------------|---------------------------|


  C#5                    E5
   E   E   E E E E E E    E  E  E E  E E  E E
|----------------------|----------------------|
|----------------------|----------------------|
|----------------------|----------------------|
|--x---x---6---x-6---6-|-----x--9----x-9----9-|
|--x---x---4---x-4---4-|-----x--7----x-7----7-|
|----------------------|----------------------|
|
|      >
| +E  +H..               +W
|----------------------|----------------------|
|----------------------|----------------------|
|-(6)-(6)--------------|-(6)------------------|
|----------------------|----------------------|
|----------------------|----------------------|
|----------------------|----------------------|
|
|  E   E   E E E E E E    E  E  E E  E E  E E
|--------------------9-|----------------------|
|--9-------9---9---9---|-12----12---12---12---|
|------6-----6---6-----|-----9----9----9----9-|
|----------------------|----------------------|
|----------------------|----------------------|
|----------------------|----------------------|


  A5                   D5
   E  E E  E E E E E    E   E E  E E  E  E   E
|--------------------|--------------------------|
|--------------------|--------------------------|
|--------------------|--------------------------|
|--------------------|------x-7----x--7------7--|
|-----x-7----x-7---7-|------x-5----x--5------5--|
|-----x-5----x-5---5-|--------------------------|
|
| +W                   +H          E  E +Q
|--------------------|--------------------------|
|--------------------|--------------------------|
|-(6)----------------|-(6)------------4-(4)S====|
|--------------------|--------------------------|
|--------------------|--------------------------|
|--------------------|--------------------------|
|
|  E  E E  E E E E E    E   E E  E E  E  E   E
|--------------------|--------------------------|
|---------10---------|-----10---10---10-----10--|
|--9----9----9---9---|--7-----7----7-----7------|
|-----7--------7---7-|--------------------------|
|--------------------|--------------------------|
|--------------------|--------------------------|


  C#5                  E5
  E  E   E E E E E E    E  E  E E  E E  E E
|--------------------|----------------------|
|--------------------|----------------------|
|--------------------|----------------------|
|-x--x---6---x-6---6-|-----x--9----x-9----9-|
|-x--x---4---x-4---4-|-----x--7----x-7----7-|
|--------------------|----------------------|
|
|                       >
| E +H..               +W
|--------------------|----------------------|
|--------------------|----------------------|
|-6-(6)--------------|-(6)------------------|
|--------------------|----------------------|
|--------------------|----------------------|
|--------------------|----------------------|
|
| E  E   E E E E E E    E  E  E E  E E  E E
|------------------9-|----------------------|
|-9------9---9---9---|-12----12---12---12---|
|----6-----6---6-----|-----9----9----9----9-|
|--------------------|----------------------|
|--------------------|----------------------|
|--------------------|----------------------|


  A5                   D5
   E  E E  E E E E E    E   E E  E E  Q       E
|--------------------|-----------------------------||
|--------------------|-----------------------------||
|--------------------|-----------------------------||
|--------------------|------x-7----x--7------------||
|-----x-7----x-7---7-|------x-5----x--5------------||
|-----x-5----x-5---5-|-----------------------------||
|
| +W                   +H          E  Q      +E
|--------------------|-----------------------------||
|--------------------|-----------------------------||
|-(6)----------------|-(6)------------6b9====(6)r==||
|--------------------|-----------------------------||
|--------------------|-----------------------------||
|--------------------|-----------------------------||
|
|  E  E E  E E E E E    E   E E  E E  E    E  E
|--------------------|-----------------------------||
|---------10---------|-----10---10---10------10----||
|--9----9----9---9---|--7-----7----7-------7-------||
|-----7--------7---7-|-----------------------------||
|--------------------|-----------------------------||
|--------------------|-----------------------------||


 Outro
  N.C.
  Gtr I
   E   E  E  E E E E E    E  E  E E  E  E E E
|----------------------|----------------------|
|----------------------|----------------------|
|--6--(6)-6-(6)6-6---6-|-----6-(6)6-(6)-6---6-|
|--6h==7p=6h=7p6-7---6-|-----7p=6h7p=6--7---6-|
|----------------------|----------------------|
|----------------------|----------------------|
|
| Gtr II
|  Q      E  E E E E E    Q     E E  E  E E E
|----------------------|----------------------|
|----------------------|----------------------|
|----------------------|----------------------|
|----------------------|----------------------|
|---------4----2-4---4-|--------4----2--4---4-|
|----------------------|----------------------|
|
| Gtr IV
|      >
| +E  +H..               +W
|----------------------|----------------------|
|----------------------|----------------------|
|-(6)-(6)--------------|-(6)------------------|
|----------------------|----------------------|
|----------------------|----------------------|
|----------------------|----------------------|


   E  E  E E  E   E  E  E    Q   E E E Q         E
|-------------------------|----------------------------|
|-------------------------|----------------------------|
|-----6-(6)6-(6)-(6)(6)-6-|------9---9-9\--------------|
|-----7p=6h7p=6--(6)(6)-6-|------9---9-9\--------------|
|-----------------7h=9----|----------------------------|
|-------------------------|----------------------------|
|
|  Q     E Q      E  E  E    Q   E Q   Q.           a
|-------------------------|----------------------------|
|-------------------------|----------------------------|
|-------------------------|----------------------------|
|--------7----------------|----------------------------|
|-----------------7-----4-|------9-----7b7.5-------(7)-|
|-------------------------|----------------------------|
|
| +W                        +H       E E     +Q
|-------------------------|----------------------------|
|-------------------------|----------------------------|
|-(6)---------------------|-(6)--------4-----(4)S======|
|-------------------------|----------------------------|
|-------------------------|----------------------------|
|-------------------------|----------------------------|


  E  E  E  E E E E E    E  E  E E  E  E E E
|--------------------|----------------------|
|--------------------|----------------------|
|-6-(6)-6-(6)6-6---6-|-----6-(6)6-(6)-6---6-|
|-6h=7p=6h=7p6-7---6-|-----7p=6h7p=6--7---6-|
|--------------------|----------------------|
|--------------------|----------------------|
|
| Q     E  E E E E E    Q     E E  E  E E E
|--------------------|----------------------|
|--------------------|----------------------|
|--------------------|----------------------|
|--------------------|----------------------|
|-------4----2-4---4-|--------4----2--4---4-|
|--------------------|----------------------|
|
|    >
| E +H..               +W
|--------------------|----------------------|
|--------------------|----------------------|
|-6-(6)--------------|-(6)------------------|
|--------------------|----------------------|
|--------------------|----------------------|
|--------------------|----------------------|


   E  E  E E  E   E  E  E    Q   E E E Q.     W
|-------------------------|-----------------|------*|
|-------------------------|-----------------|------*|
|-----6-(6)6-(6)-(6)(6)-6-|------9---9-9\---|------*|
|-----7p=6h7p=6--(6)(6)-6-|------9---9-9\---|------*|
|-----------------7h=9----|-----------------|------*|
|-------------------------|-----------------|------*|
|
|  Q     E Q      E  E  E    Q   E Q   Q.     W
|-------------------------|-----------------|------*|
|-------------------------|-----------------|------*|
|-------------------------|-----------------|------*|
|--------7----------------|-----------------|------*|
|-----------------7-----4-|------9-----7\---|------*|
|-------------------------|-----------------|------*|
|
| +W                        +W                W
|-------------------------|-----------------|------*|
|-------------------------|-----------------|------*|
|-(6)---------------------|-(6)-------------|------*|
|-------------------------|-----------------|------*|
|-------------------------|-----------------|------*|
|-------------------------|-----------------|------*|


Duration Legend
---------------
W - whole; H - half; Q - quarter; E - 8th; S - 16th; T - 32nd; X - 64th; a - acciaccatura
+ - note tied to previous; . - note dotted; .. - note double dotted
Uncapitalized letters represent notes that are staccato (1/2 duration)
Irregular groupings are notated above the duration line
Duration letters will always appear directly above the note/fret number it represents the
duration for.  Duration letters with no fret number below them represent rests.  Multi-
bar rests are notated in the form Wxn, where n is the number of bars to rest for.  Low
melody durations appear below the staff

Tablature Legend
----------------
 h   - hammer-on
 p   - pull-off
 b   - bend
 pb  - pre-bend
 r   - bend release (if no number after the r, then release immediately)
 /\  - slide into or out of (from/to "nowhere")
 s   - legato slide
 S   - shift slide
  - natural harmonic
[n]  - artificial harmonic
n(n) - tapped harmonic
 ~   - vibrato
 tr  - trill
 T   - tap
 TP  - trem. picking
 PM  - palm muting
\n/  - tremolo bar dip; n = amount to dip
 \n  - tremolo bar down
 n/  - tremolo bar up
/n\  - tremolo bar inverted dip
 =   - hold bend; also acts as connecting device for hammers/pulls
 <>  - volume swell (louder/softer)
 x   - on rhythm slash represents muted slash
 o   - on rhythm slash represents single note slash

Misc Legend
-----------
 |  - bar
||  - double bar
||o - repeat start
o|| - repeat end
*|  - double bar (ending)
 :  - bar (freetime)
 $  - Segno
 &  - Coda
Tempo markers -  = BPM(8/16=s8/s16), where s8 = swing 8ths, s16 = swing 16ths





Comments


Popular 69 Eyes tabs & chords
Brandon Lee Bass Tabs
Brandon Lee 1 Bass Tabs
Framed In Blood Bass Tabs
Lost Boys Bass Tabs
Still Waters Run Deep Bass Tabs
Velvet Touch Bass Tabs
From Dusk Till Dawn 1 Tabs
From Dusk Till Dawn 2 Tabs
Gothic Girl 1 Tabs
Grey Intro Tabs


Song lyrics



↑ Back to top | Tablatures and chords are parodies/interpretations of the original songs. You may use it for private study, scholarship, research or language learning purposes only
© 2014 AZChords.com Contact us | Privacy policy | DMCA | Add/correct tabs | Request tabs | Top 50 tabs