>
 >
Lost Boys

Lost Boys Bass Tabs

69 Eyes - Lost Boys chords, tabs, tablatures, lyrics

Guitar lessons | Add/correct | Request | Top 50 tabs Artists:  A B C D E F G H I J K L M N O P Q R S T U V W X Y Z 0-9

Lost Boys Bass Tabs – 69 Eyes

CD, Sheet music, Poster

Do you like Lost Boys? Share with your friends now
Bass TabsTabsTabs v2
#------------------------------------------------------------------------------##

                              LOST BOYS (Bassline)
                           As recorded by The 69 Eyes
                          (From the 2004 Album DEVILS)

Words by Jyrki

Music by Bazie
Arranged by The 69 Eyes

Gtr I (E A D G) - 'Untitled'
Gtr II (E A D G B E) - 'Untitled'

 Intro
  Q=156
 4/4
  Gtr I
  W                 W                 W                 W
|-----------------|-----------------|-----------------|-----------------|
|-----------------|-----------------|-----------------|-----------------|
|-----------------|-----------------|-----------------|-----------------|
|-----------------|-----------------|-----------------|-----------------|
|
| Gtr II
| E E E E E E E E   E E E E E E E E   E E E E E E E E   E E E E E E E E
|-----------------|-----------------|-----------------|-----------------|
|-2-2-2-2-2-2-2-2-|-2-2-2-2-2-2-2-2-|-2-2-2-2-2-2-2-2-|-2-2-2-2-2-2-2-2-|
|-----------------|-----------------|-----------------|-----------------|
|-----------------|-----------------|-----------------|-----------------|
|-----------------|-----------------|-----------------|-----------------|
|-----------------|-----------------|-----------------|-----------------|


  E E E E E E E E   E E E E E E E E   E E E E E E E E   E E E E E E E E
|-----------------|-----------------|-----------------|------------------|
|-----------------|-----------------|-7-7-7-7-7-7-7-7-|------------------|
|-4-4-4-4-4-4-4-4-|-4-4-4-4-4-4-4-4-|-----------------|-9-9-9-9-9-9-9-9--|
|-----------------|-----------------|-----------------|------------------|
|
| E E E E E E E E   E E E E E E E E   E E E E E E E E   E E E E E E E E
|-----------------|-----------------|-----------------|------------------|
|-2-2-2-2-2-2-2-2-|-2-2-2-2-2-2-2-2-|-2-2-2-2-2-2-2-2-|-2-2-2-2-2-2-2-2--|
|-----------------|-----------------|-----------------|------------------|
|-----------------|-----------------|-----------------|------------------|
|-----------------|-----------------|-----------------|------------------|
|-----------------|-----------------|-----------------|------------------|


    E E E E E E E E   E E E E E E E E   E E E E E E E E   E E E E E E E E
||------------------|-----------------|-----------------|------------------||
||o-----------------|-----------------|-7-7-7-7-7-7-7-7-|-----------------o||
||o-4-4-4-4-4-4-4-4-|-4-4-4-4-4-4-4-4-|-----------------|-9-9-9-9-9-9-9-9-o||
||------------------|-----------------|-----------------|------------------||
|
|   E E E E E E E E   E E E E E E E E   E E E E E E E E   E E E E E E E E
||------------------|-----------------|-----------------|------------------||
||o-2-2-2-2-2-2-2-2-|-2-2-2-2-2-2-2-2-|-2-2-2-2-2-2-2-2-|-2-2-2-2-2-2-2-2-o||
||------------------|-----------------|-----------------|------------------||
||------------------|-----------------|-----------------|------------------||
||o-----------------|-----------------|-----------------|-----------------o||
||------------------|-----------------|-----------------|------------------||


  W          +W           +W           H    E Q.
|----------|------------|------------|--------------||
|----------|------------|------------|-9------------||
|-4--------|-(4)--------|-(4)--------|--------9\----||
|----------|------------|------------|--------------||


   Verse
    E E E E E E E E   E E E E E E E E   E E E E E E E E   E E E E E E E E
||------------------|-----------------|-----------------|-----------------|
||o-----------------|-----------------|-----------------|-----------------|
||o-4-4-4-4-4-4-4-4-|-4-4-4-4-4-4-4-4-|-4-4-4-4-4-4-4-4-|-7-7-7-7-9-9-9-9-|
||------------------|-----------------|-----------------|-----------------|


                                     1.
  E E E E E E E E   E E E E E E E E   E E E E E E E E
|-----------------|-----------------|-----------------|
|-----------------|-7-7-7-7-7-7-7-7-|-----------------|
|-4-4-4-4-4-4-4-4-|-----------------|-----------------|
|-----------------|-----------------|-2-2-2-2-2-2-2-2-|


                   2.
  E E E E Q  Q      E E E E E E E E
|----------------||--------------------|
|---------------o||--------------------|
|---------------o||---------------4S===|
|-2-2-2-2-2--0---||-2-2-2-2-2-2-2------|


  Q  +E  E E E E E   W          +W           W          +W
|------------------|----------|------------|----------|--------||
|------------------|----------|------------|----------|--------||
|-9--(9)-9-9-7-----|----------|------------|----------|--------||
|--------------9-7-|-0--------|-(0)--------|-2--------|-(2)----||


   Chorus
    E E E E E E E E   E E E E E E E E   E E E E E E E E   E E E E E E E E
||------------------|-----------------|-----------------|------------------||
||o-----------------|-----------------|-7-7-7-7-7-7-7-7-|-----------------o||
||o-4-4-4-4-4-4-4-4-|-7-7-7-7-7-7-7-7-|-----------------|-5-5-5-5-5-5-5-5-o||
||------------------|-----------------|-----------------|------------------||


   Verse
    E E E E E E E E   E E E E E E E E   E E E E E E E E   E E E E E E E E
||------------------|-----------------|-----------------|-----------------|
||o-----------------|-----------------|-----------------|-----------------|
||o-4-4-4-4-4-4-4-4-|-4-4-4-4-4-4-4-4-|-4-4-4-4-4-4-4-4-|-7-7-7-7-9-9-9-9-|
||------------------|-----------------|-----------------|-----------------|


                                     1.
  E E E E E E E E   E E E E E E E E   E E E E E E E E
|-----------------|-----------------|-----------------|
|-----------------|-7-7-7-7-7-7-7-7-|-----------------|
|-4-4-4-4-4-4-4-4-|-----------------|-----------------|
|-----------------|-----------------|-2-2-2-2-2-2-2-2-|


                   2.
  E E E E Q  Q      E E E E E E E E
|----------------||--------------------|
|---------------o||--------------------|
|---------------o||---------------4S===|
|-2-2-2-2-2--0---||-2-2-2-2-2-2-2------|


  E +E  +E  E E E E E   W          +W           W          +W
|---------------------|----------|------------|----------|--------||
|---------------------|----------|------------|----------|--------||
|-9-(9)-(9)-9-9-7-----|----------|------------|----------|--------||
|-----------------9-7-|-0--------|-(0)--------|-2--------|-(2)----||


   Chorus
    E E E E E E E E   E E E E E E E E   E E E E E E E E   E E E E E E E E  4x
||------------------|-----------------|-----------------|------------------||
||o-----------------|-----------------|-7-7-7-7-7-7-7-7-|-----------------o||
||o-4-4-4-4-4-4-4-4-|-7-7-7-7-7-7-7-7-|-----------------|-5-5-5-5-5-5-5-5-o||
||------------------|-----------------|-----------------|------------------||


 Guitar Solo
  E E E E E E E E   E E E E E E E E   E E E E E E E E   E E E E E Q.
|-----------------|-----------------|-----------------|-----------------|
|-----------------|-----------------|-----------------|-----------------|
|-4-4-4-4-4-4-4-4-|-4-4-4-4-4-4-4-4-|-4-4-4-4-4-4-4-4-|-2-2-2-2-2-------|
|-----------------|-----------------|-----------------|-----------2/----|


  E E E E E E E E   E E E E E E E E   E E E E E E E E
|-2-2-2-2-2-2-2-2-|-2-2-2-2-2-2-2-2-|-4-4-4-4-4-4-4-4-|
|-----------------|-----------------|-----------------|
|-----------------|-----------------|-----------------|
|-----------------|-----------------|-----------------|


  E E E E E E E E   E E E E E E E E   E E E E E E E E   E E E E E E E E
|-4-4-4-4-4-4-4-4-|-----------------|-----------------|-2-2-2-2-2-2-2-2--|
|-----------------|-----------------|-----------------|------------------|
|-----------------|-4-4-4-4-4-4-4-4-|-4-4-4-4-4-4-4-4-|------------------|
|-----------------|-----------------|-----------------|------------------|


  E E E E E E E E   +H     +E  Q  E    Q  E +E  E E E e
|-2-2-2-2-2-------|-----------------|-------------------||
|-----------------|-----------------|-------------------||
|-----------------|-----------------|-----9-(9)-9-9-9-9-||
|-----------5-4-2-|-(2)----(2)-4S=9s|=14----------------||


 Out-Chorus
  Wx4
|--------|
|--------|
|--------|
|--------|


  E E E E E E E E   E E E E E E E E   E E E E E E E E   E E E E E E E E
|-----------------|-----------------|-----------------|------------------|
|-----------------|-----------------|-7-7-7-7-7-7-7-7-|------------------|
|-4-4-4-4-4-4-4-4-|-7-7-7-7-7-7-7-7-|-----------------|-5-5-5-5-5-5-5-5--|
|-----------------|-----------------|-----------------|------------------|


    E E E E E E E E   E E E E E E E E   E E E E E E E E   E E E E E E E E  4x
||------------------|-----------------|-----------------|------------------||
||o-----------------|-----------------|-7-7-7-7-7-7-7-7-|-----------------o||
||o-4-4-4-4-4-4-4-4-|-7-7-7-7-7-7-7-7-|-----------------|-5-5-5-5-5-5-5-5-o||
||------------------|-----------------|-----------------|------------------||


 Outro
  E E E E E E E E   E E E E E E E E   E E E E E E E E   E E E E E E E E
|-----------------|-----------------|-----------------|------------------|
|-----------------|-----------------|-7-7-7-7-7-7-7-7-|------------------|
|-4-4-4-4-4-4-4-4-|-4-4-4-4-4-4-4-4-|-----------------|-9-9-9-9-9-9-9-9--|
|-----------------|-----------------|-----------------|------------------|


  E E E E E E E E   E E E E E E E E
|-----------------|-----------------|
|-----------------|-----------------|
|-4-4-4-4-4-4-4-4-|-4-4-4-4-4-4-4-4-|
|-----------------|-----------------|


  E E E E E E E E   E E E E E Q   E   W
|-----------------|-----------------|------*|
|-7-7-7-7-7-7-7-7-|-----------------|------*|
|-----------------|-9-9-9-9-9-9\----|------*|
|-----------------|-----------------|------*|


Duration Legend
---------------
W - whole; H - half; Q - quarter; E - 8th; S - 16th; T - 32nd; X - 64th; a - acciaccatura
+ - note tied to previous; . - note dotted; .. - note double dotted
Uncapitalized letters represent notes that are staccato (1/2 duration)
Irregular groupings are notated above the duration line
Duration letters will always appear directly above the note/fret number it represents the
duration for.  Duration letters with no fret number below them represent rests.  Multi-
bar rests are notated in the form Wxn, where n is the number of bars to rest for.  Low
melody durations appear below the staff

Tablature Legend
----------------
 h   - hammer-on
 p   - pull-off
 b   - bend
 pb  - pre-bend
 r   - bend release (if no number after the r, then release immediately)
 /\  - slide into or out of (from/to "nowhere")
 s   - legato slide
 S   - shift slide
  - natural harmonic
[n]  - artificial harmonic
n(n) - tapped harmonic
 ~   - vibrato
 tr  - trill
 T   - tap
 TP  - trem. picking
 PM  - palm muting
\n/  - tremolo bar dip; n = amount to dip
 \n  - tremolo bar down
 n/  - tremolo bar up
/n\  - tremolo bar inverted dip
 =   - hold bend; also acts as connecting device for hammers/pulls
 <>  - volume swell (louder/softer)
 x   - on rhythm slash represents muted slash
 o   - on rhythm slash represents single note slash

Misc Legend
-----------
 |  - bar
||  - double bar
||o - repeat start
o|| - repeat end
*|  - double bar (ending)
 :  - bar (freetime)
 $  - Segno
 &  - Coda
Tempo markers -  = BPM(8/16=s8/s16), where s8 = swing 8ths, s16 = swing 16ths





Comments


Popular 69 Eyes tabs & chords
Beneath The Blue Bass Tabs
Framed In Blood Bass Tabs
Gothic Girl 1 Bass Tabs
Nothing On You Bass Tabs
Dead N' Gone Tabs
Framed In Blood Tabs
Gothic Girl 1 Tabs
Nothing On You Tabs
Suspiria Snow White Tabs
Brandon Lee Ukulele


Song lyrics



↑ Back to top | Tablatures and chords are parodies/interpretations of the original songs. You may use it for private study, scholarship, research or language learning purposes only
© 2014 AZChords.com Contact us | Privacy policy | DMCA | Add/correct tabs | Request tabs | Top 50 tabs