» » »

69 Eyes, Ghost Tabs (ver.1)

Artists:  A B C D E F G H I J K L M N O P Q R S T U V W X Y Z # 

Ghost Tabs (ver.1)

69 Eyes Tabs
Rating:
5/5 (1 vote)
Ghost lessons Tabs too difficult? Try these video lessons and learn fast
                Intro:
|------------11-----------------||-------------12-------------|
|--9-----10------9--------------||--9-----10------------------|
|-------------------------------||----------------------------|
|----11--------------11-9-12----||----11-----------11---11----|
|-------------------------------||-----------------11---11----|
|-------------------------------||-----------------11---11----|

|------------11-----------------||-------------12---------------|
|--9-----10------9--------------||--9-----10--------------------|
|-------------------------------||-----------------9------------|
|----11--------------11-9-12----||----11-------------11-10-9-8--|
|-------------------------------||------------------------------|
|-------------------------------||------------------------------|

Verse:Power Tabs
   |-------------------------------||-------------------------|
   |-------------------------------||-------------------------|
x2 |-------------------------------||------9------------------|
   |-------------------------------||-------11-10-9-8---------|
   |-A4---A7--A4---A2---A5---A4----||-------------------------|
   |---------------------------E4--||-------------------------|
Pre-Chorus: Directly after verse, leads into chorus. Power Tabs
|-------------------------------|
|-------------------------------|
|-------------------------------|
|-------------------------------|
|-------------------------------|
|---E7--E7--E0------------------|

    **Down and up, pause, Down and up,pause, Down.**

Chorus: Power Tabs
|-------------------------------|
|-------------------------------|
|-------------------------------|
|-------------------------------|
|-----------A0------------------|
|---E4--E0-----E2---------------|

**Down and up, pause, Down and up,pause, Down.**

|------------11-----------------||-------------12---------------|
|--9-----10------9--------------||--9-----10--------------------|
|-------------------------------||-----------------9------------|
|----11--------------11-9-12----||----11-------------11-10-9-8--|
|-------------------------------||------------------------------|
|-------------------------------||------------------------------|

|-------------------------------||-------------------------------|
|-------------------------------||-------------------------------|
|-------------------------------||-------------------------------|
|-------------------------------||-------------------------------|
|-------------------------------||-----------A0------------------|
|---E7--E7--E0------------------||---E4--E0-----E2---------------|

Solo:
|----------------------------||----------------------------|
|----------------------------||----------------------------|
|--8--9--11--8--9------------||-8--9--11--8/9\8/9\8--------|
|----------------------------||----------------------------|
|--6--7--9---6--7------------||-6--7---9--6/7\6/7\6--------|
|----------------------------||----------------------------|

/ = Slide to
\ = Slide back to

|------------11-----------------||-------------12-------------|
|--9-----10------9--------------||--9-----10------------------|
|-------------------------------||----------------------------|
|----11--------------11-9-12----||----11-----------11---11----|
|-------------------------------||-----------------11---11----|
|-------------------------------||-----------------11---11----|

|-------------------------------|
|-------------------------------|
|-------------------------------| Keeps going until end
|-------------------------------|
|-----------A0------------------|
|---E4--E0-----E2---------------|
            
Submit corrections

comments powered by Disqus
↑ Back to top | 69 Eyes Tabs for Ghost. Lyrics for acoustic guitar and electric guitar. Tablatures and chords are parodies/interpretations of the original songs. You may use it for private study, scholarship, research or language learning purposes only