>
 >
D.I.D

D.I.D Bass Tabs

69 Eyes - D.I.D chords, tabs, tablatures, lyrics

Guitar lessons | Add/correct | Request | Top 50 tabs Artists:  A B C D E F G H I J K L M N O P Q R S T U V W X Y Z 0-9

D.I.D Bass Tabs – 69 Eyes

CD, Sheet music, Poster

Do you like D.I.D? Share with your friends now
Bass TabsTabs
#------------------------------------------------------------------------------##

                                D.I.D. (Bassline)
                           As recorded by The 69 Eyes
               (From the 1997 Album WRAP YOUR TROUBLES IN DREAMS)

Words by Jyrki69

Music by Bazie
Arranged by The 69 Eyes

Gtr I (Db Ab Db Gb) - 'Archzie'

 Intro
  Q=138
 4/4
  Gtr I
  W          W          Q  E E E E E E   +H.      +Q
|----------|----------|----------------|-----------------|
|----------|----------|----------------|-----------------|
|----------|----------|----------------|-----------------|
|----------|----------|-0--3-0-0-3-0-5-|-(5)------(5)\---|


  W          W          Q  E E E E E E   H    H
|----------|----------|----------------|-----------|
|----------|----------|----------------|-----------|
|----------|----------|--------------5-|-3---------|
|----------|----------|-0--3-0-0-3-0---|------5----|


  Q  E E E E E E   E E E E E E E E   Q  E E E E E E   E E E E E E E E
|----------------|-----------------|----------------|-----------------|
|----------------|-----------------|----------------|-----------------|
|----------------|-----------------|----------------|-----------------|
|-0--3-0-0-3-0-3-|-5-0-3-0-0-5-3-3-|-0--3-0-0-3-0-3-|-5-0-3-0-0-5-3-3-|


  $
  Q  E E E E E E   E E E E E E E E   Q  E E E E E E   E E E E E E E E
|----------------|-----------------|----------------|-----------------||
|----------------|-----------------|----------------|-----------------||
|----------------|-----------------|----------------|-----------------||
|-0--3-0-0-3-0-3-|-5-0-3-0-0-5-3-3-|-0--3-0-0-3-0-3-|-5-0-3-0-0-5-3-3-||


   Verse
    E +E  E E E E E E   E E E E E E E E
||--------------------|-----------------|
||o-------------------|-----------------|
||o-------------------|-----------------|
||--0-(0)-0-0-0-0-0-0-|-0-0-0-0-0-5-3-3-|


  E +E  E E E E E E   E E E E E E E E
|-------------------|-------------------||
|-------------------|------------------o||
|-------------------|------------------o||
|-0-(0)-0-0-0-0-0-0-|-0-0-0-0-0-5-3-3---||


   Chorus
                                                          D.S.
    Q  E E E Q.     Q  E E E Q.     Q  E E E Q.     H    Q  E E
||----------------|---------------|---------------|---------------||
||o---------------|---------------|---------------|--------------o||
||o---------------|---------------|---------------|--------------o||
||--0--3-0-0------|-0--3-0-0------|-0--3-0-0------|-5----3--5-3---||


   Bridge
    $$
    E +E  E E E E E E   E E E E E E E E
||--------------------|-----------------|
||o-------------------|-----------------|
||o-------------------|-----------------|
||--0-(0)-0-0-0-0-0-0-|-0-0-0-0-0-0-0-2-|


                     1.                    2.
                                       To Coda
  E +E  E E E E E E   E +E  E E E E E E     W
|-------------------|--------------------||-------||
|-------------------|-------------------o||-------||
|-------------------|-------------------o||-------||
|-3-(3)-3-3-3-3-3-3-|-5-(5)-5-5-5-5-5-5--||-5-----||


 Guitar Solo
  Q  E E E Q.     Q  E E E Q.     Q  E E E Q.     H    Q  E E
|---------------|---------------|---------------|-------------|
|---------------|---------------|---------------|-------------|
|---------------|---------------|---------------|-------------|
|-0--3-0-0------|-0--3-0-0------|-0--3-0-0------|-5----3--5-3-|


                                         D.S.S. al Coda
  Q  E E E Q.     Q  E E E Q.     Q  E E E Q.     H    H
|---------------|---------------|---------------|-----------||
|---------------|---------------|---------------|-----------||
|---------------|---------------|---------------|-----------||
|-0--3-0-0------|-0--3-0-0------|-0--3-0-0------|-5----3----||


   Chorus
    &
    Q  E E E Q.     Q  E E E Q.     Q  E E E Q.     H    Q  E E
||----------------|---------------|---------------|---------------||
||o---------------|---------------|---------------|--------------o||
||o---------------|---------------|---------------|--------------o||
||--0--3-0-0------|-0--3-0-0------|-0--3-0-0------|-5----3--5-3---||


   Out-Chorus
    Q  E E E E E E   E E E E E E E E   Q  E E E E E E   E E E E E E E E   3x
||-----------------|-----------------|----------------|-------------------||
||o----------------|-----------------|----------------|------------------o||
||o----------------|-----------------|----------------|------------------o||
||--0--3-0-0-3-0-3-|-5-0-3-0-0-5-3-3-|-0--3-0-0-3-0-3-|-5-0-3-0-0-5-3-3---||


  Q  E E E E E E   E E E E E E E E   Q  E E E E E E   H    Q.   E   H    H
|----------------|-----------------|----------------|-------------|-----------*|
|----------------|-----------------|----------------|-------------|-----------*|
|----------------|-----------------|--------------5-|-3-----------|-----------*|
|-0--3-0-0-3-0-3-|-5-0-3-0-0-5-3-3-|-0--3-0-0-3-0---|------5----3-|-0---------*|


Duration Legend
---------------
W - whole; H - half; Q - quarter; E - 8th; S - 16th; T - 32nd; X - 64th; a - acciaccatura
+ - note tied to previous; . - note dotted; .. - note double dotted
Uncapitalized letters represent notes that are staccato (1/2 duration)
Irregular groupings are notated above the duration line
Duration letters will always appear directly above the note/fret number it represents the
duration for.  Duration letters with no fret number below them represent rests.  Multi-
bar rests are notated in the form Wxn, where n is the number of bars to rest for.  Low
melody durations appear below the staff

Tablature Legend
----------------
 h   - hammer-on
 p   - pull-off
 b   - bend
 pb  - pre-bend
 r   - bend release (if no number after the r, then release immediately)
 /\  - slide into or out of (from/to "nowhere")
 s   - legato slide
 S   - shift slide
  - natural harmonic
[n]  - artificial harmonic
n(n) - tapped harmonic
 ~   - vibrato
 tr  - trill
 T   - tap
 TP  - trem. picking
 PM  - palm muting
\n/  - tremolo bar dip; n = amount to dip
 \n  - tremolo bar down
 n/  - tremolo bar up
/n\  - tremolo bar inverted dip
 =   - hold bend; also acts as connecting device for hammers/pulls
 <>  - volume swell (louder/softer)
 x   - on rhythm slash represents muted slash
 o   - on rhythm slash represents single note slash

Misc Legend
-----------
 |  - bar
||  - double bar
||o - repeat start
o|| - repeat end
*|  - double bar (ending)
 :  - bar (freetime)
 $  - Segno
 &  - Coda
Tempo markers -  = BPM(8/16=s8/s16), where s8 = swing 8ths, s16 = swing 16ths





Comments


Popular 69 Eyes tabs & chords
Framed In Blood Bass Tabs
Lost Boys Bass Tabs
Borderline 1 Chords
Wasting The Dawn 1 Chords
Dance D Amour Intro 1 Tabs
From Dusk Till Dawn 2 Tabs
Some Kind Of Magick Tabs
Still Waters Run Deep Tabs
The Chair Tabs
Wasting The Dawn Tabs


Song lyrics



↑ Back to top | Tablatures and chords are parodies/interpretations of the original songs. You may use it for private study, scholarship, research or language learning purposes only
© 2014 AZChords.com Contact us | Privacy policy | DMCA | Add/correct tabs | Request tabs | Top 50 tabs