>
 >
D.I.D

D.I.D Guitar Tabs

69 Eyes - D.I.D chords, tabs, tablatures, lyrics

Guitar lessons | Add/correct | Request | Top 50 tabs Artists:  A B C D E F G H I J K L M N O P Q R S T U V W X Y Z 0-9

D.I.D Guitar Tabs – 69 Eyes

CD, Sheet music, Poster

Do you like D.I.D? Share with your friends now
Bass TabsTabs
#------------------------------------------------------------------------------##

                                     D.I.D.
                           As recorded by The 69 Eyes
               (From the 1997 Album WRAP YOUR TROUBLES IN DREAMS)

Words by Jyrki69

Music by Bazie
Arranged by The 69 Eyes

Gtr I (Db Ab Db Gb Bb Eb) - 'Bazie'
Gtr II (Db Ab Db Gb Bb Eb) - 'Timo Timo'

 Intro
  Q=138
  D5 F5        G5
 4/4
  Gtr I
       PM|   PM
  Q  E E E E E E       +W           +W           +W
|--------------------|------------|------------|--------|
|--------------------|------------|------------|--------|
|--------------------|------------|------------|--------|
|-0--3-----3---------|------------|------------|--------|
|-0--3-----3---5b5.5r|=(5)--------|-(5)--------|-(5)----|
|-0--3-0-0-3-0-5b5.5r|=(5)--------|-(5)--------|-(5)----|


  D5 F5        G5                              D5   C5   G5
       PM|   PM
  Q  E E E E E E       +W           +H..        E   H    H
|--------------------|------------|---------------|-----------|
|--------------------|------------|---------------|-----------|
|--------------------|------------|---------------|-----------|
|-0--3-----3---------|------------|------------/7-|-5----5----|
|-0--3-----3---5b5.5r|=(5)--------|-(5)--------/5-|-3----5----|
|-0--3-0-0-3-0-5b5.5r|=(5)--------|-(5)-----------|------5----|


  D5 F5            G5  F5    G5F5    D5 F5            G5  F5    G5F5
  Gtrs I, II
       PM|   PM      PM  PM|              PM|   PM      PM  PM|
  Q  E E E E E E   E E E E E E E E   Q  E E E E E E   E E E E E E E E
|----------------|-----------------|----------------|-----------------|
|----------------|-----------------|----------------|-----------------|
|----------------|-----------------|----------------|-----------------|
|-0--3-----3---3-|-5---3-----5-3-3-|-0--3-----3---3-|-5---3-----5-3-3-|
|-0--3-----3---3-|-5---3-----5-3-3-|-0--3-----3---3-|-5---3-----5-3-3-|
|-0--3-0-0-3-0-3-|-5-0-3-0-0-5-3-3-|-0--3-0-0-3-0-3-|-5-0-3-0-0-5-3-3-|


  $
  D5 F5            G5  F5    G5F5    D5 F5            G5  F5    G5F5
       PM|   PM      PM  PM|              PM|   PM      PM  PM|
  Q  E E E E E E   E E E E E E E E   Q  E E E E E E   E E E E E E E E
|----------------|-----------------|----------------|-----------------||
|----------------|-----------------|----------------|-----------------||
|----------------|-----------------|----------------|-----------------||
|-0--3-----3---3-|-5---3-----5-3-3-|-0--3-----3---3-|-5---3-----5-3-3-||
|-0--3-----3---3-|-5---3-----5-3-3-|-0--3-----3---3-|-5---3-----5-3-3-||
|-0--3-0-0-3-0-3-|-5-0-3-0-0-5-3-3-|-0--3-0-0-3-0-3-|-5-0-3-0-0-5-3-3-||


   Verse
    D5 F5            G5  F5    G5F5   D5 F5            G5  F5    G5F5
         PM|   PM      PM  PM|             PM|   PM      PM  PM|
    Q  E E E E E E   E E E E E E Q    Q  E E E E E E   E E E E E E Q
||-----------------|----------------|----------------|------------------||
||o----------------|----------------|----------------|-----------------o||
||-----------------|----------------|----------------|------------------||
||-----------------|----------------|----------------|------------------||
||o-0--3-----3---3-|-5---3-----5-3--|-0--3-----3---3-|-5---3-----5-3---o||
||--0--3-0-0-3-0-3-|-5-0-3-0-0-5-3--|-0--3-0-0-3-0-3-|-5-0-3-0-0-5-3----||


   Chorus
    D5 F5N.C.           D5 F5N.C.
         PM|                 PM|
    Q  E E E Q    +E    Q  E E E  Q      +E
||--------------------|----------------------|
||o----------3----(3)-|----------15-----(15)-|
||-----------5b7--(5)-|----------17b19--(17)-|
||--0--3--------------|-0--3-----------------|
||o-0--3--------------|-0--3-----------------|
||--0--3-0-0----------|-0--3-0-0-------------|


                            D.S.
  D5 F5N.C.           G5   F5 G5F5
       PM|
  Q  E E E Q    +E    H    Q  E E
|-------------------|---------------||
|----------3----(3)-|--------------o||
|----------5b7--(5)-|---------------||
|-0--3--------------|-5----3--5-3---||
|-0--3--------------|-5----3--5-3--o||
|-0--3-0-0----------|-5----3--5-3---||


 Bridge
  $$
  D5                                    E5  F5                 G5
  Gtr II
     PM--|   PM|                 PM     PM     PM--|     PM|       PM|
  Q  E E E E E E    Q    E   E   E  E E E   Q  E E  E  E E E   Q   E E E E E E
|----------------|------------------------|------------------|-----------------|
|----------------|------------------------|------------------|-----------------|
|----------------|------------------------|------------------|-----------------|
|-0--------0-----|--0----7---7------0-0-2-|-3----------3-----|-5---5-5---5-5-5-|
|-0--------0-----|--0----5---5------0-0-2-|-3----------3-----|-5---5-5---5-5-5-|
|-0--0-0-0-0-0-0-|--0---(0)-(0)--0--0-0-2-|-3--3-3--3--3-3-3-|-5---5-5---5-5-5-|
|
| Gtr I
| W                +H           +E  E Q     H      +E  E Q     Q.    E E E E E
|----------------|------------------------|------------------|-----------------|
|----------------|------------------------|------------------|-----------------|
|----------------|------------------------|------------------|-----------------|
|-7--------------|-(7)----------(7)-------|------------------|-5---------------|
|-5--------------|-(5)----------(5)-5-7---|-8------(8)-8-7---|-------8-7-8-7-5-|
|----------------|------------------------|------------------|-----------------|


                                                        To Coda
  D5                                  E5  F5                 G5
     PM--|   PM|                      PM     PM--|     PM|
  Q  E E E E E E    Q    E   E  E E E E   Q  E E  E  E E E   W
|----------------|----------------------|------------------|-------||
|----------------|----------------------|------------------|-------||
|----------------|----------------------|------------------|-------||
|-0--------0-----|--0----7---7----0-0-2-|-3----------3-----|-5-----||
|-0--------0-----|--0----5---5----0-0-2-|-3----------3-----|-5-----||
|-0--0-0-0-0-0-0-|--0---(0)-(0)---0-0-2-|-3--3-3--3--3-3-3-|-5-----||
|
| W                +H           E E Q     H      +E  E Q     W
|----------------|----------------------|------------------|-------||
|----------------|----------------------|------------------|-------||
|----------------|----------------------|------------------|-------||
|-7--------------|-(7)------------------|------------------|-5-----||
|-5--------------|-(5)------------5-7---|-8------(8)-8-7---|-------||
|----------------|----------------------|------------------|-------||


 Guitar Solo
  D5   F5  N.C.                D5    F5  N.C.
           PM|                           PM|
  Q     E  E E   Q       +E    Q      E  E  E     Q          +E
|----------------------------|-----------------------------------|
|----------------3-------(3)-|-------------------15---------(15)-|
|----------------5b7-----(5)-|-------------------17b19------(17)-|
|-0-----3--------------------|-0------3--------------------------|
|-0-----3--------------------|-0------3--------------------------|
|-0-----3--0-0---------------|-0------3--0--0--------------------|
|
| Q    +Q    Q       +Q        Q     +Q     Q           +Q
|----------------------------|-----------------------------------|
|-3----(3)---5-------(5)-----|-6-----(6)----8-----------(8)------|
|-5b7--(5)---7b9-----(7)-----|-9b10--(9)---10b12-------(10)------|
|----------------------------|-----------------------------------|
|----------------------------|-----------------------------------|
|----------------------------|-----------------------------------|


  D5       F5   N.C.                  G5                    F5  G5F5
                PM---|
    Q        E  E    E   Q      +E     H                     Q  E E
|-----------------------------------|--------------------------------|
|------------------------3------(3)-|--------------------------------|
|------------------------5b7----(5)-|--------------------------------|
|---0--------3----------------------|--5---------------------3--5-3--|
|---0--------3----------------------|--5---------------------3--5-3--|
|---0--------3--0----0--------------|--5---------------------3--5-3--|
|
|   Q        E.    E.   +E.   S  E     E  +E       +E   +E   H
|-----------------------------------|--------------------------------|
|--10-------13----------------------|--------------------------------|
|-/12b14===(12)---12r==(12)---------|--------------------------------|
|----------------------------12-14--|-12-(12)b14==(12)r(12)----------|
|-----------------------------------|-----------------------12-------|
|-----------------------------------|--------------------------------|


  D5     F5N.C.                        D5      F5 N.C.
             PM-|                                  PM------|
    Q    E   E    E   Q          +E     Q       E  E        E  Q      +E
|------------------------------------|------------------------------------|
|---------------------3----------(3)-|------------------------15-----(15)-|
|---------------------5b7--------(5)-|------------------------17b19--(17)-|
|---0----3---------------------------|--0-------3-------------------------|
|---0----3---------------------------|--0-------3-------------------------|
|---0----3---0----0------------------|--0-------3--0--------0-------------|
|
|                                                              ~~~~~
|                                                  |--3--|
|  +Q    E   E    E   E    E     +E     E    E  E  S  S  S  E  Q.
|------------------------------------|------------------------------------|
|------------------------------------|---------13-10-13-10----------------|
|---------------[10]------12b14r(12)-|-12b14------------------10----------|
|--------x-[12]------12--------------|---------------------12-------------|
|-(12)\------------------------------|------------------------------------|
|------------------------------------|------------------------------------|


                                                        D.S.S. al Coda
  D5      F5      N.C.                   G5               F5    G5    F5
                  PM|
  Q       E       E  E      Q      +E     H                Q      E   E
|--------------------------------------|---------------------------------||
|---------------------------3------(3)-|---------------------------------||
|---------------------------5b7----(5)-|---------------------------------||
|-0-------3----------------------------|--5----------------3------5---3--||
|-0-------3----------------------------|--5----------------3------5---3--||
|-0-------3-------0--0-----------------|--5----------------3------5---3--||
|
|                                                             ~~
| E  e.      E.      E     +E    Q        E     +E   E  E  E  E  +Q
|--------------------------------------|---------------------------------||
|---13b15---13b15---13b15r(13)--10-----|------------------13-------------||
|--------------------------------------|-12b14r(12)-10-12----12-(12)\----||
|--------------------------------------|---------------------------------||
|--------------------------------------|---------------------------------||
|--------------------------------------|---------------------------------||


   Chorus
    &
    D5 F5N.C.           D5 F5N.C.
    Gtrs I, II
         PM|                 PM|
    Q  E E E Q    +E    Q  E E E  Q      +E
||--------------------|----------------------|
||o----------3----(3)-|----------15-----(15)-|
||-----------5b7--(5)-|----------17b19--(17)-|
||--0--3--------------|-0--3-----------------|
||o-0--3--------------|-0--3-----------------|
||--0--3-0-0----------|-0--3-0-0-------------|


  D5 F5N.C.           G5   F5 G5F5
       PM|
  Q  E E E Q    +E    H    Q  E E
|-------------------|---------------||
|----------3----(3)-|--------------o||
|----------5b7--(5)-|---------------||
|-0--3--------------|-5----3--5-3---||
|-0--3--------------|-5----3--5-3--o||
|-0--3-0-0----------|-5----3--5-3---||


   Out-Chorus
    D5 F5            G5  F5    G5F5    D5 F5            G5  F5    G5F5
         PM|   PM      PM  PM|              PM|   PM      PM  PM|
    Q  E E E E E E   E E E E E E E E   Q  E E E E E E   E E E E E E E E   3x
||-----------------|-----------------|----------------|-------------------||
||o----------------|-----------------|----------------|------------------o||
||-----------------|-----------------|----------------|-------------------||
||--0--3-----3---3-|-5---3-----5-3-3-|-0--3-----3---3-|-5---3-----5-3-3---||
||o-0--3-----3---3-|-5---3-----5-3-3-|-0--3-----3---3-|-5---3-----5-3-3--o||
||--0--3-0-0-3-0-3-|-5-0-3-0-0-5-3-3-|-0--3-0-0-3-0-3-|-5-0-3-0-0-5-3-3---||


  D5 F5            G5  F5    G5F5
       PM|   PM      PM  PM|
  Q  E E E E E E   E E E E E E E E
|----------------|-----------------|
|----------------|-----------------|
|----------------|-----------------|
|-0--3-----3---3-|-5---3-----5-3-3-|
|-0--3-----3---3-|-5---3-----5-3-3-|
|-0--3-0-0-3-0-3-|-5-0-3-0-0-5-3-3-|


  D5 F5        D5   C5   G5   F5  D5
       PM|   PM
  Q  E E E E E  E   H    Q.   E   H.      Q
|-----------------|-------------|------------*|
|-----------------|-------------|------------*|
|-----------------|-------------|------------*|
|-0--3-----3---/7-|-5----5----3-|-0----------*|
|-0--3-----3---/5-|-3----5----3-|-0----------*|
|-0--3-0-0-3-0----|------5----3-|-0----------*|


Duration Legend
---------------
W - whole; H - half; Q - quarter; E - 8th; S - 16th; T - 32nd; X - 64th; a - acciaccatura
+ - note tied to previous; . - note dotted; .. - note double dotted
Uncapitalized letters represent notes that are staccato (1/2 duration)
Irregular groupings are notated above the duration line
Duration letters will always appear directly above the note/fret number it represents the
duration for.  Duration letters with no fret number below them represent rests.  Multi-
bar rests are notated in the form Wxn, where n is the number of bars to rest for.  Low
melody durations appear below the staff

Tablature Legend
----------------
 h   - hammer-on
 p   - pull-off
 b   - bend
 pb  - pre-bend
 r   - bend release (if no number after the r, then release immediately)
 /\  - slide into or out of (from/to "nowhere")
 s   - legato slide
 S   - shift slide
  - natural harmonic
[n]  - artificial harmonic
n(n) - tapped harmonic
 ~   - vibrato
 tr  - trill
 T   - tap
 TP  - trem. picking
 PM  - palm muting
\n/  - tremolo bar dip; n = amount to dip
 \n  - tremolo bar down
 n/  - tremolo bar up
/n\  - tremolo bar inverted dip
 =   - hold bend; also acts as connecting device for hammers/pulls
 <>  - volume swell (louder/softer)
 x   - on rhythm slash represents muted slash
 o   - on rhythm slash represents single note slash

Misc Legend
-----------
 |  - bar
||  - double bar
||o - repeat start
o|| - repeat end
*|  - double bar (ending)
 :  - bar (freetime)
 $  - Segno
 &  - Coda
Tempo markers -  = BPM(8/16=s8/s16), where s8 = swing 8ths, s16 = swing 16ths





Comments


Popular 69 Eyes tabs & chords
Brandon Lee Bass Tabs
Dance D'Amour Bass Tabs
Lost Boys Bass Tabs
The Chair Bass Tabs
Borderline 1 Chords
Brandon Lee Chords
Dead Girls Are Easy Tabs
Shadow Of Your Love Intro Tabs
Brandon Lee Ukulele
Red Ukulele


Song lyrics



↑ Back to top | Tablatures and chords are parodies/interpretations of the original songs. You may use it for private study, scholarship, research or language learning purposes only
© 2014 AZChords.com Contact us | Privacy policy | DMCA | Add/correct tabs | Request tabs | Top 50 tabs