» » »

69 Eyes, Devils Tabs (ver.3)

Artists:  A B C D E F G H I J K L M N O P Q R S T U V W X Y Z # 

Devils Tabs (ver.3)

69 Eyes Tabs
 Rating:
4/5 (4 votes)
Devils lessons Tabs too difficult? Try these video lessons and learn fast
1
                E ------------------------------------------------|
B ------------------------------------------------|
G ----13----12----11-11----13----12----11-11------| intro
D -11----11----11-------14----11----11------------|
A ------------------------------------------------|
E ------------------------------------------------| (x2)


E -------------------------------------------------|
B -------------------------------------------------|
G ------9-------------------9------9-11-9----------| pre-verse
D -9-11---9-11-11-9----9-11---9-11-----------------|
A ------------------11-----------------------------|
E -------------------------------------------------| (x2)


the second time you play the intro, let the last 12th fret note on the G string ring out 
you play the pre-verse.

listen to the song for reference. /m/
            
Submit corrections

comments powered by Disqus
↑ Back to top | 69 Eyes Tabs for Devils. Lyrics for acoustic guitar and electric guitar. 1 Tablatures and chords are parodies/interpretations of the original songs. You may use it for private study, scholarship, research or language learning purposes only