>
 >
Devils

Devils Bass Tabs

69 Eyes - Devils chords, tabs, tablatures, lyrics

Guitar lessons | Add/correct | Request | Top 50 tabs Artists:  A B C D E F G H I J K L M N O P Q R S T U V W X Y Z 0-9

Devils Bass Tabs – 69 Eyes

CD, Sheet music, Poster

Do you like Devils? Share with your friends now
Bass TabsTabsTabs v2
#------------------------------------------------------------------------------##

                                DEVILS (Bassline)
                           As recorded by The 69 Eyes
                          (From the 2004 Album DEVILS)

Words by Jyrki69

Music by Bazie
Arranged by The 69 Eyes

Gtr I (Db Ab Db Gb) - 'Archzie'
Gtr II (Db Ab Db Gb) - 'Synth'

 Intro
  Q=132
 4/4
  Gtr I
  W          +W           W          +W
|----------|------------|----------|--------|
|----------|------------|----------|--------|
|----------|------------|----------|--------|
|-0--------|-(0)--------|-0--------|-(0)----|


                                            <
  W          +W           W          +H     H
|----------|------------|----------|-------------|
|----------|------------|----------|-------------|
|----------|------------|----------|-------------|
|-0--------|-(0)--------|-0--------|-(0)----5----|


  E E E E E E E E   +E  E E E E E E E
|-----------------|-------------------|
|-----------------|-------------------|
|-----------------|-------------------|
|-0-0-0-0-0-0-0-0-|-(0)-0-0-0-5-5-5-5-|


  E E E E E E E E   +E  E E E  E  E  E  E
|-----------------|-----------------------|
|-----------------|-----------------------|
|-----------------|-----------------------|
|-8-8-8-8-8-8-8-8-|-(8)-8-8-8-10-10-10-10-|


  E E E E E E E E   +E  E E E E E E E
|-----------------|-------------------|
|-----------------|-------------------|
|-----------------|-------------------|
|-0-0-0-0-0-0-0-0-|-(0)-0-0-0-5-5-5-5-|


  E E E E E E E E   +E  E +E  S S Q  Q
|-----------------|----------------------||
|-----------------|----------------------||
|-----------------|----------------------||
|-8-8-8-8-8-8-8-8-|-(8)-8-(8)-8-8-8--8\--||


   Pre-Verse
    E E E E +E  E E E   E E E +E  E E E E   +E  E E E E E +E  E
||--------------------|-------------------|----------------------||
||o-------------------|-------------------|---------------------o||
||o-------------------|-------------------|---------------------o||
||--0-0-0-0-(0)-3-3-3-|-0-0-0-(0)-0-0-0-0-|-(0)-3-3-3-3-5-(5)-3--||


   Verse
    Gtrs I, II
    E E E E +E  E E E   E E E E E E E E   +E  E E E E E +E  E  4x
||--------------------|-----------------|----------------------||
||o-------------------|-----------------|---------------------o||
||o-------------------|-----------------|---------------------o||
||--0-0-0-0-(0)-3-3-3-|-3-5-5-3-0-0-0-0-|-(0)-3-3-3-3-5-(5)-3--||


 Pre-Chorus
  Gtr I
  E E E E E E E E   E E E E E E E E   E E E E E E E E
|-----------------|-----------------|-----------------|
|-----------------|-----------------|-----------------|
|-1-1-1-1-1-1-1-1-|-3-3-3-3-3-3-3-3-|-1-1-1-1-1-1-1-1-|
|-----------------|-----------------|-----------------|


  E E E E E E E E    E  E  E  E  E  E  E  E
|-----------------|-------------------------||
|-----------------|-------------------------||
|-3-3-3-3-3-3-3-3s|=15-15-15-15-15-15-15-15-||
|-----------------|-------------------------||


 Chorus
  E E E E E E E E   +E  E E E E E E E
|-----------------|-------------------|
|-----------------|-------------------|
|-----------------|-------------------|
|-0-0-0-0-0-0-0-0-|-(0)-0-0-0-5-5-5-5-|


  E E E E E E E E   +E  E E E  E  E  E  E
|-----------------|-----------------------|
|-----------------|-----------------------|
|-----------------|-----------------------|
|-8-8-8-8-8-8-8-8-|-(8)-8-8-8-10-10-10-10-|


  E E E E E E E E   +E  E E E E E E E   E E E E E E E E   +E  E +E  E Q  Q
|-----------------|-------------------|-----------------|--------------------||
|-----------------|-------------------|-----------------|--------------------||
|-----------------|-------------------|-----------------|--------------------||
|-0-0-0-0-0-0-0-0-|-(0)-0-0-0-5-5-5-5-|-8-8-8-8-8-8-8-8-|-(8)-8-(8)-8-3--3\--||


   Pre-Verse
    E E E E +E  E E E   E E E +E  E E E E   +E  E E E E E +E  E
||--------------------|-------------------|----------------------||
||o-------------------|-------------------|---------------------o||
||o-------------------|-------------------|---------------------o||
||--0-0-0-0-(0)-3-3-3-|-0-0-0-(0)-0-0-0-0-|-(0)-3-3-3-3-5-(5)-3--||


   Verse
    Gtrs I, II
    E E E E +E  E E E   E E E E E E E E   +E  E E E E E +E  E  4x
||--------------------|-----------------|----------------------||
||o-------------------|-----------------|---------------------o||
||o-------------------|-----------------|---------------------o||
||--0-0-0-0-(0)-3-3-3-|-3-5-5-3-0-0-0-0-|-(0)-3-3-3-3-5-(5)-3--||


 Chorus
  Gtr I
  E E E E E E E E   +E  E E E E E E E
|-----------------|-------------------|
|-----------------|-------------------|
|-5-5-5-5-5-5-5-5-|-(5)-5-5-5---------|
|-----------------|-----------5-5-5-5-|


  E E E E E E E E   +E  E E E  E  E  E  E
|-----------------|-----------------------|
|-----------------|-----------------------|
|-----------------|-----------------------|
|-8-8-8-8-8-8-8-8-|-(8)-8-8-8-10-10-10-10-|


  E E E E E E E E   +E  E E E E E E E   E E E E E E E E   +E  E E E E E E E
|-----------------|-------------------|-----------------|-------------------|
|-----------------|-------------------|-----------------|-------------------|
|-5-5-5-5-5-5-5-5-|-(5)-5-5-5---------|-----------------|-------------------|
|-----------------|-----------5-5-5-5-|-8-8-8-8-8-8-8-8-|-(8)-8-8-8-3-3-3-3-|


  E E E E E E E E   +E  E E E E E E E
|-----------------|-------------------|
|-----------------|-------------------|
|-----------------|-------------------|
|-0-0-0-0-0-0-0-0-|-(0)-0-0-0-5-5-5-5-|


  E E E E E E E E   +E  E E E  E  E  E  E
|-----------------|-----------------------|
|-----------------|-----------------------|
|-----------------|-----------------------|
|-8-8-8-8-8-8-8-8-|-(8)-8-8-8-10-10-10-10-|


  E E E E E E E E   +E  E E E E E E E   W          +Q.   E  Q   Q
|-----------------|-------------------|----------|------------------||
|-----------------|-------------------|----------|------------------||
|-----------------|-------------------|----------|-------3s13--13\--||
|-0-0-0-0-0-0-0-0-|-(0)-0-0-0-5-5-5-5-|-8--------|-(8)--------------||


   Bridge
    E E E +E  E E E E   E E Q  E E E E   E E E E E Q.
||--------------------|----------------|-----------------||
||o-------------------|----------------|----------------o||
||o-------------3-----|-3-5-5----------|-----------3----o||
||--3p0-0-(0)-----3-0-|--------3p0-0---|---3p0-0-5-------||


   Guitar Solo
    Gtrs I, II
    E E E E +E  E E E   E E E E E E E E   +E  E E E E E +E  E
||--------------------|-----------------|----------------------||
||o-------------------|-----------------|---------------------o||
||o-------------------|-----------------|---------------------o||
||--0-0-0-0-(0)-3-3-3-|-0-0-0---0-0-0-0-|-(0)-3-3-3-3-5-(5)-3--||


 Pre-Chorus
  Gtr I
  E E E E E E E E   E E E E E E E E   E E E E E E E E
|-----------------|-----------------|-----------------|
|-----------------|-----------------|-----------------|
|-1-1-1-1-1-1-1-1-|-3-3-3-3-3-3-3-3-|-1-1-1-1-1-1-1-1-|
|-----------------|-----------------|-----------------|


  E E E E E E E E    E  E  E  E  E  E  E  E
|-----------------|-------------------------||
|-----------------|-------------------------||
|-3-3-3-3-3-3-3-3s|=15-15-15-15-15-15-15-15-||
|-----------------|-------------------------||


 Chorus
  E E E E E E E E   +E  E E E Q  Q    E E E E E E E E   +E  E E E  Q   Q
|-----------------|-----------------|-----------------|-------------------|
|-----------------|-----------------|-----------------|-------------------|
|-----------------|-----------------|-----------------|-------------------|
|-0-0-0-0-0-0-0-0-|-(0)-0-0-0-5--5--|-8-8-8-8-8-8-8-8-|-(8)-8-8-8-10--10--|


  E E E E E E E E   +E  E E E Q  Q    E E E E E E E E   +E  E E E Q  Q
|-----------------|-----------------|-----------------|-----------------|
|-----------------|-----------------|-----------------|-----------------|
|-----------------|-----------------|-----------------|-----------------|
|-0-0-0-0-0-0-0-0-|-(0)-0-0-0-5--5--|-8-8-8-8-8-8-8-8-|-(8)-8-8-8-3--3--|


  E E E E E E E E   +E  E E E Q  Q    E E E E E E E E   +E  E E E  Q   Q
|-----------------|-----------------|-----------------|-------------------|
|-----------------|-----------------|-----------------|-------------------|
|-5-5-5-5-5-5-5-5-|-(5)-5-5-5-------|-----------------|-------------------|
|-----------------|-----------5--5--|-8-8-8-8-8-8-8-8-|-(8)-8-8-8-10--10--|


  E E E E E E E E   +E  E E E Q  Q    E E E E E E E E   +W
|-----------------|-----------------|-----------------|--------||
|-----------------|-----------------|-----------------|--------||
|-5-5-5-5-5-5-5-5-|-(5)-5-5-5-------|-----------------|--------||
|-----------------|-----------5--5--|-8-8-8-8-8-8-8-8-|-(8)----||


   Out-Chorus
    E E E E +E  E E E   E E E +E  E E E E   +E  E E E E E +E  E
||--------------------|-------------------|----------------------||
||o-------------------|-------------------|---------------------o||
||o-------------------|-------------------|---------------------o||
||--0-0-0-0-(0)-3-3-3-|-0-0-0-(0)-0-0-0-0-|-(0)-3-3-3-3-5-(5)-3--||


 Outro
  Q  H.        W          W          W
|------------|----------|----------|------*|
|------------|----------|----------|------*|
|------------|----------|----------|------*|
|-0----------|----------|----------|------*|


Duration Legend
---------------
W - whole; H - half; Q - quarter; E - 8th; S - 16th; T - 32nd; X - 64th; a - acciaccatura
+ - note tied to previous; . - note dotted; .. - note double dotted
Uncapitalized letters represent notes that are staccato (1/2 duration)
Irregular groupings are notated above the duration line
Duration letters will always appear directly above the note/fret number it represents the
duration for.  Duration letters with no fret number below them represent rests.  Multi-
bar rests are notated in the form Wxn, where n is the number of bars to rest for.  Low
melody durations appear below the staff

Tablature Legend
----------------
 h   - hammer-on
 p   - pull-off
 b   - bend
 pb  - pre-bend
 r   - bend release (if no number after the r, then release immediately)
 /\  - slide into or out of (from/to "nowhere")
 s   - legato slide
 S   - shift slide
  - natural harmonic
[n]  - artificial harmonic
n(n) - tapped harmonic
 ~   - vibrato
 tr  - trill
 T   - tap
 TP  - trem. picking
 PM  - palm muting
\n/  - tremolo bar dip; n = amount to dip
 \n  - tremolo bar down
 n/  - tremolo bar up
/n\  - tremolo bar inverted dip
 =   - hold bend; also acts as connecting device for hammers/pulls
 <>  - volume swell (louder/softer)
 x   - on rhythm slash represents muted slash
 o   - on rhythm slash represents single note slash

Misc Legend
-----------
 |  - bar
||  - double bar
||o - repeat start
o|| - repeat end
*|  - double bar (ending)
 :  - bar (freetime)
 $  - Segno
 &  - Coda
Tempo markers -  = BPM(8/16=s8/s16), where s8 = swing 8ths, s16 = swing 16ths





Comments


Popular 69 Eyes tabs & chords
Sleeping With Lions Bass Tabs
Stolen Season 2 Bass Tabs
The Chair 3 Bass Tabs
Wasting The Dawn 2 Bass Tabs
Dance D Amour Chords
Crashing High Tabs
Dead Girls Are Easy Tabs
Hevioso Tabs
Suspiria Snow White Tabs
Wasting The Dawn Tabs


Song lyrics



↑ Back to top | Tablatures and chords are parodies/interpretations of the original songs. You may use it for private study, scholarship, research or language learning purposes only
© 2014 AZChords.com Contact us | Privacy policy | DMCA | Add/correct tabs | Request tabs | Top 50 tabs