>
 >
Dance D Amour

Dance D Amour Guitar Tabs

69 Eyes - Dance D Amour chords, tabs, tablatures, lyrics

Guitar lessons | Add/correct | Request | Top 50 tabs Artists:  A B C D E F G H I J K L M N O P Q R S T U V W X Y Z 0-9

Dance D Amour Guitar Tabs – 69 Eyes

CD, Sheet music, Poster

Do you like Dance D Amour? Share with your friends now
ChordsTabs
----------------------------------------------------------------------------
                             Dance D'Amour - 69 Eyes
-------------------------------------------------------------------------------



Tuning: Drop Db ( Db Ab Db Gb Bb Eb )


    Intro ( Main Riff / Bazie )

eb|-----------------------------------------|
Bb|----5----1----0----1----3----1----0------|
Gb|--0----0----0----0----0----0----0----0-2-|
Db|-----------------------------------------|
Ab|-----------------------------------------|
Db|-----------------------------------------|

                                       Timo-Timo

eb|------------------------------------------------------------|
Bb|------------------------------------------------------------|
Gb|------------------------------------------------------------|
Db|---------------------------------------7--------------------|
Ab|---------------------------------------7-let-ring-----------|
Db|---------------------------------------7--------------------|


    Bazie

eb|------------------------------------------|
Bb|----5----1----0----1----3----1----0-------|
Gb|--0----0----0----0----0----0----0----0-2--|
Db|------------------------------------------|
Ab|------------------------------------------|
Db|------------------------------------------|


    Timo-Timo

eb|-----------------------------------------------------------|
Bb|-----------------------------------------------------------|
Gb|-----------------------------------------------------------|
Db|--7-7-7-7-7-7-7-7--3-3-3-3-3-3-3-3--5-5-5-5-5-5-5-5--7~-~--|
Ab|--7-7-7-7-7-7-7-7--3-3-3-3-3-3-3-3--5-5-5-5-5-5-5-5--7~-~--|
Db|--7-7-7-7-7-7-7-7--3-3-3-3-3-3-3-3--5-5-5-5-5-5-5-5--7~-~--|



   Verse ( Heavy Distortion / Bazie and Timo-Timo)


eb|-----------------------------------------------------------------------------|
Bb|-----------------------------------------------------------------------------|
Gb|-----------------------------------------------------------------------------|
Db|-7-7-7-7-7-7-7-7-7-7-7-7-7-7-3-3-3-3-3-3-3-3-3-3-3-3-5-5-5-5-5-5-5-5-5-5-5---|
Ab|-7-7-7-7-7-7-7-7-7-7-7-7-7-7-3-3-3-3-3-3-3-3-3-3-3-3-5-5-5-5-5-5-5-5-5-5-5---|
Db|-7-7-7-7-7-7-7-7-7-7-7-7-7-7-3-3-3-3-3-3-3-3-3-3-3-3-5-5-5-5-5-5-5-5-5-5-5---|
    P   P P       P   P P         P P   P P   P P         P P   P P   P P

eb|---------------|
Bb|---------------|
Gb|---------------|
Db|-5-7-7-7-7-----|    (x 4)
Ab|-5-7-7-7-7-----|
Db -7-7-7-7-7-----|
        P P


   Chorus ( Bazie ) definitely not 100% correct

eb|---------------------------------------------------|
Bb|---------------------------------------------------|
Gb|---------------------------------------------------|
Db|--14---------------------------14------------------|  (x 2)
Ab|-----17p15-14-14-12p10-10-12------15---14-15-17----|
Db|---------------------------------------------------|


    Repeat Main Riff ( Bazie and Timo-Timo)




    Repeat Verse



    Repeat Chorus (x 2)


    Solo ( Bazie )    99.9% correct

eb|------------------------------------------------------------------------|
Bb|------------------------------------------------------------------------|
Gb|----7----6----7-6----6-7----7----6----7-6----6-7----9----7----6-7-6-----|
Db|--4----4----4------4------5----5----5------5------7----7----7-------7---|
Ab|------------------------------------------------------------------------|
Db ------------------------------------------------------------------------|

eb|----------------------------------------------------------------------|
Bb|----------------------------------------------------------------------|
Gb|-----------------------------------19-----18-----19-18-----18-19------|
Db|-6-6-6-4-4--6fb---------------/--16-----16-----16--------16-----------|
Ab|---------------octave higher------------------------------------------|
Db|----------------------------------------------------------------------|

eb|----------------------------------------------------------------------|
Bb|----------------------------------------19-----17-----19-17----17-15--|
Gb|-----19-----18-----19-18-----18-19---14-----14-----14-------14--------|
Db|--17-----17-----17--------17------------------------------------------|
Ab|----------------------------------------------------------------------|
Db|----------------------------------------------------------------------|

eb|---------------------14-12----12fb-------|
Bb|--14-15-14-12-14-15--------15------------|
Gb|-----------------------------------------|
Db|-----------------------------------------|
Ab|-----------------------------------------|
Db|-----------------------------------------|



    Repeat Chorus * THIS CHORUS, AFTER THE SOLO, IS 2 STEPS DOWN... NOT UP *

    (x 2)


    Outro ( Bazie and Timo-Timo )


eb|---------------------------------------------|
Bb|---------------------------------------------|
Gb|---------------------------------------------|
Db|--7--8--x-9-x-9-9-9-x-9-x-9-9-9-x-9-x-9-9-9--|
Ab|--7--8--x-9-x-9-9-9-x-9-x-9-9-9-x-9-x-9-9-9--|
Db|--7--8--x-9-x-9-9-9-x-9-x-9-9-9-x-9-x-9-9-9--|

eb|-----------------------------------------------------------------|
Bb|-----------------------------------------------------------------|
Gb|-----------------------------------------------------------------|
Db|--7--8--x-9-x-9-9-9-x-9-x-9-9-9-x-9-x-9-9-9--9-9-9---------------|
Ab|--7--8--x-9-x-9-9-9-x-9-x-9-9-9-x-9-x-9-9-9--9-9-9---------------|
Db|--7--8--x-9-x-9-9-9-x-9-x-9-9-9-x-9-x-9-9-9--9-9-9---------------|

| x  mute, scratch
| /  slide up
| P  palm mute
| fb full bend

This tab is dedicated to mr. tyler carver... lol





Comments


Popular 69 Eyes tabs & chords
Devils Bass Tabs
Wasting The Dawn 2 Bass Tabs
Night Watch Chords
Wasting The Dawn 1 Chords
Dead Girls Are Easy Tabs
Perfect Skin Tabs
Shadow Of Your Love Intro Tabs
Wasting The Dawn Tabs
Wasting The Dawn 1 Tabs
Red Ukulele


Song lyrics



↑ Back to top | Tablatures and chords are parodies/interpretations of the original songs. You may use it for private study, scholarship, research or language learning purposes only
© 2014 AZChords.com Contact us | Privacy policy | DMCA | Add/correct tabs | Request tabs | Top 50 tabs