» » »

69 Eyes, Back In Blood Tabs (ver.1)

Artists:  A B C D E F G H I J K L M N O P Q R S T U V W X Y Z # 

Back In Blood Tabs (ver.1)

69 Eyes Tabs
Rating:
5/5 (3 votes)
Back In Blood lessons Tabs too difficult? Try these video lessons and learn fast
                (Intro)
-------------------------------------------------------------------------------
                             Back in Blood - 69 Eyes
-------------------------------------------------------------------------------

Tuning: Drop Db (Db Ab Db Gb Bb Eb)


    Intro

eb|-------------------------------------------------------------------|
Bb|-------------------------------------------------------------------|
Gb|-------------------------------------------------------------------|
Db|--5-NH---let-ring---feed-back--------------------------------------|
Ab|-------------------------------------------------------------------|
Db|-------------------------------------------------------------------|

    Palm Mute All Open notes On Top String...

eb|----------------------------------------------------------------|
Bb|----------------------------------------------------------------|
Gb|-------10----7-----12-----10--5---7---10--7---------------------|
Db|-------10----7-----12-----10--5---7---10--7---------------------|
Ab|-------8-----5-----10-----8---3---5---8---5---3-5-3-0------3-5--|
Db|---0-0----0-0---0-0----0-0------0---------------------3-5-------|
                                                   P P P P P


Please rate... My first tab ever and many more to come from the 69 Eyes

new album "Back in Blood"


| NH - Natural Harmonic
| P - Palm Mute

===============================================================================
            
Submit corrections

comments powered by Disqus
↑ Back to top | 69 Eyes Tabs for Back In Blood. Lyrics for acoustic guitar and electric guitar. Tablatures and chords are parodies/interpretations of the original songs. You may use it for private study, scholarship, research or language learning purposes only