» » »

With Instead Of Against Tabs (ver.1)

Artists:  A B C D E F G H I J K L M N O P Q R S T U V W X Y Z # 

With Instead Of Against Tabs (ver.1)

59 Times The Pain
Rating:
0/5 (0 votes)

Hard to play? Try these video lessons and learn fast.
                

PART I
e|------------------------------------------------------------------|
B|------------------------------------------------------------------|
G|------------------------------------------------------------------|
D|-----6/55-6/55----------------------------------------------------|
A|--5--4/33-4/33----------------------------------------------------|
E|--3---------------------------------------------------------------|

PART II
e|------------------------------------------------------------------|
B|------------------------------------------------------------------|
G|------------------------------------------------------------------|
D|------333---------------6/55-6/55---------------------------------|
A|--555-111-333333-555555-4/33-4/33---------------------------------|
E|--333-----111111-333333-------------------------------------------|

PART III(Chorus)
e|------------------------------------------------------------------|
B|------------------------------------------------------------------|
G|------------------------------------------------------------------|
D|-------3-----------6-5-3------------------------------------------|
A|--5xxx-1-3xxx-5xxx-4-3-1-3----------------------------------------|
E|--3xxx---1xxx-3xxx-------1----------------------------------------|

PART IV
e|------------------------------------------------------------------|
B|------------------------------------------------------------------|
G|------------------------------------------------------------------|
D|--44xxxxxx-44-5555-44xxxxxx-44------------------------------------|
A|--22xxxxxx-22-3333-22xxxxxx-22-5555-------------------------------|
E|-------------------------------3333-------------------------------|

PARTS:
1.Part 1
2.Part 2
3.Part 3
4.Part 1
5.Part 2
6.Part 3
7.Part 1
8.Part 4
9.Part 1
            
Hard to play? Try these video lessons and learn fast. | Correct




comments powered by Disqus
↑ Back to top | Tablatures and chords are parodies/interpretations of the original songs. You may use it for private study, scholarship, research or language learning purposes only