>
 >
We're Still Around

We're Still Around Guitar Tabs

59 Times The Pain - We're Still Around chords, tabs, tablatures, lyrics

Guitar lessons | Add/correct | Request | Top 50 tabs Artists:  A B C D E F G H I J K L M N O P Q R S T U V W X Y Z 0-9

We're Still Around Guitar Tabs – 59 Times The Pain

CD, Sheet music, Poster

Do you like We're Still Around? Share with your friends now
Tabs


INTRO
e|---------|
B|---------|
G|---------|
D|-5-3-2-x-|
A|-5-3-2-x-|
E|-7-5-0-x-|

PRE-CHORUS
e|-----|
B|-----|
G|-----|
D|-5-5-|
A|-5-5-|
E|-7-3-|

CHORUS
e|---------|---------|---------|---------|---------|---------|----------|
B|---------|---------|---------|---------|---------|---------|----------|
G|---------|---------|---------|---------|---------|---------|----------|
D|-2---5-2-|---2-2-2-|-2---5-7-|---7-7-7-|-2---5-2-|---2-2-2-|-5--7--8--|
A|-2---5-2-|---2-2-2-|-2---5-7-|---7-7-7-|-2---5-2-|---2-2-2-|-5--7--8--|
E|-0---3-0-|---0-0-0-|-0---3-5-|---5-5-5-|-0---3-0-|---0-0-0-|-3--5--6--|

e|----------|
B|----------|
G|----------|
D|---8-7-5--|
A|---8-7-5--|
E|---6-5-3--|

VERSE 1
e|---------|---------|---------|---------|
B|---------|---------|---------|---------|
G|---------|---------|---------|---------|
D|-2-2-2-2-|-2-2-2-2-|-5-5-5-5-|-7-7-7-7-|
A|-2-2-2-2-|-2-2-2-2-|-5-5-5-5-|-7-7-7-7-|
E|-0-0-0-0-|-0-0-0-0-|-3-3-3-3-|-5-5-5-5-|

VERSE 2
e|---------|---------|---------|---------|
B|---------|---------|---------|---------|
G|---------|---------|---------|---------|
D|-9-9-9-9-|-9-9-9-9-|-7-7-7-7-|-5-5-5-5-|
A|-9-9-9-9-|-9-9-9-9-|-7-7-7-7-|-5-5-5-5-|
E|-7-7-7-7-|-7-7-7-7-|-5-5-5-5-|-3-3-3-3-|

OUTRO
e|---------|---------|---------|---------|
B|---------|---------|---------|---------|
G|---------|---------|---------|---------|
D|-9---7-9-|-7---4-7-|---5---7-|-5-7-----|
A|-9---7-9-|-7---4-7-|---5---7-|-5-7-----|
E|-7---5-7-|-5---2-5-|---3---5-|-3-5-----|

e|---------|---------|---------|---------|
B|---------|---------|---------|---------|
G|---------|---------|---------|---------|
D|-9---7-9-|-7---4-7-|---2---7-|-5-------|
A|-9---7-9-|-7---4-7-|---2---7-|-5-------|
E|-7---5-7-|-5---2-5-|---0---5-|-3-------|


Song order:
INTRO
PRE CHORUS
CHORUS	(2x)
VERSE 1	(4x)
VERSE 2	(2x)
PRE CHORUS
CHORUS	(2x)
VERSE 1	(2x)
VERSE 2	(2x)
OUTRO		(About 3x)





Comments


Popular 59 Times The Pain tabs & chords
Broken Unity Bass Tabs
Make It Go Away Bass Tabs
Time To Chill 1 Bass Tabs
Weakend Revolution Bass Tabs
2 Minutes Remaining In The 3rd Tabs
Blind Anger And Hate Tabs
Something Your Not Tabs
To Me Your Dead Tabs
Weekend Revolution Tabs
With Instead Of Against Tabs


Song lyrics



↑ Back to top | Tablatures and chords are parodies/interpretations of the original songs. You may use it for private study, scholarship, research or language learning purposes only
© 2014 AZChords.com Contact us | Privacy policy | DMCA | Add/correct tabs | Request tabs | Top 50 tabs