» » »

Weekend Revolution Tabs (ver.1)

Artists:  A B C D E F G H I J K L M N O P Q R S T U V W X Y Z # 

Weekend Revolution Tabs (ver.1)

59 Times The Pain
Rating:
0/5 (0 votes)

Tabs too difficult? Try these video lessons and learn fast.
                                 WEAKENED REVOLUTION - 59 Times the Pain


This is the gist of this song. You'll have to figure out for yourself how many
times each part is played. To help you, I'll tell you that some of these measures
are cut in half and repeated, like the verse when it is used during the chorus.

If you want to play this the EXACT way the band does, tune your guitar 1/2 step
down (to E flat) and move all chords UP ONE FRET.

NOTE: s = slide

MAIN RIFF 
e|---------------------------------------------------------------------------|
B|---------------------------------------------------------------------------|
G|---------------------------------------------------------------------------|
D|--88888888-------4-6--88888888-------6-4------------------------------(8)--|
A|--66666666--4444-2-4--66666666--4444-4-2---6s888-4s888-6s888--88--88--(6)--|
E|------------2222----------------2222-------4s666-4s666-4s666--66--66-------|

DURING VERSE                      FIRST  AND SECOND FILL
e|------------------------------  |------------------------------------------|
B|------------------------------  |------------------------------------------|
G|------------------------------  |------------------------------------------|
D|---4---------6-----xx--6s8--8-  |--8888888888888888888888------------------|
A|-4-2-------4-4-----xx--4s6--6-  |------------------------------------------|
E|-2---------2------------------  |------------------------------------------|

THIRD FILL
e|------------------------------|
B|------------------------------|
G|-8888888888888888888888-------|
D|------------------------------|
A|------------------------------|
E|------------------------------|
            
Tabs too difficult? Try these video lessons and learn fast.




comments powered by Disqus
↑ Back to top | Tablatures and chords are parodies/interpretations of the original songs. You may use it for private study, scholarship, research or language learning purposes only