» » »

Weakend Revolution Bass tabs (ver.1)

Artists:  A B C D E F G H I J K L M N O P Q R S T U V W X Y Z # 

Weakend Revolution Bass tabs (ver.1)

59 Times The Pain
Rating:
0/5 (0 votes)

Hard to play? Try these video lessons and learn fast.
                Artist - 59 Times the Pain
Song Title - Weakend Revolution
Album - End of the Millenium (1999)


Main Riff:

G|---------------------------------------|
D|---------------------------------------|
A|--6666-6666------4----6666-6666------4-|
E|-----------2222-7--------------2222-7--|

Fill #1:

G|--------------------------------------|
D|--------------------------------------|
A|--------------------------------------|
E|--4-666-666-4-666-666-4-666-666-66-66-|

Fill #2:

G|----------------------------|
D|----------------------------|
A|----------------------------|
E|--66-66-66-66-66-66-66-66-6-|

Fill #3:

G|--------------------------------------------|
D|--------------------------------------------|
A|--------------------------------------------|
E|--4-666-666-4-666-666-4-666-666-4-666-666-0-|

Riff #1:

G|---------------------------------------------------------------------------|
D|---------------------------------------------------------------------------|
A|-----------------------------------------2222-2222-2222-2-4444-4444-4444-2-|
E|--0000-0000-0000-0000-0000-0000-0000-0-2-----------------2--------------2--|

Riff #2:

G|---------------------------------------|
D|---------------------------------------|
A|--2222-2222-2222-2-4444-4444-4444-4444-|
E|------------------2--------------------|


Play Song in this Order:

Main Riff     x1
Fill #1       x1
Riff #1       x2
Main Riff     x1
Fill #1       x1
Riff #1       x2
Riff #2       x1
Fill #2       x1
Pause
Fill #2       x1
Main Riff     x6
Fill #3       x1


I think this is right.
Listen to the song for timing.

-Totoro32
            
Hard to play? Try these video lessons and learn fast. | Correct




comments powered by Disqus
↑ Back to top | Tablatures and chords are parodies/interpretations of the original songs. You may use it for private study, scholarship, research or language learning purposes only