» » »

59 Times The Pain, To Me Your Dead Tabs (ver.1)

Artists:  A B C D E F G H I J K L M N O P Q R S T U V W X Y Z # 

To Me Your Dead Tabs (ver.1)

59 Times The Pain Tabs
 Rating:
4/5 (4 votes)
To Me Your Dead lessons Tabs too difficult? Try these video lessons and learn fast
1
                                     TO ME YOU'RE DEAD - 59 Times The Pain


   Intro
E|----------------------     --------------------------------------
B|----------------------     --------------------------------------
C|----------------------\    --------------------------------------
D|--4-4-4-4--5-4--5--7-- |x4 --7----7----7-------------------------
A|--2-2-2-2--3-2--5--7--/    --7----7----7-------------------------
E|----------------3--5--     --5----5----5-------------------------

   Verse
E|-----------------------------------------------------------------
B|-----------------------------------------------------------------
C|-----------------------------------------------------------------\
D|--7-7-7-7--8-8-8-8--7-7-7-7--8-8-8-8--7-7-7-7--8-8-8-8--3-3-3-3-- |x3
A|--7-7-7-7--8-8-8-8--7-7-7-7--6-6-6-6--7-7-7-7--8-8-8-8--3-3-3-3--/
E|--5-5-5-5--6-6-6-6--5-5-5-5-----------5-5-5-5--6-6-6-6--1-1-1-1--

   Chorus
E|-----------------------------------------------------------------
B|-----------------------------------------------------------------
C|-----------------------------------------------------------------\
D|--7-7-7--9-9-9--10-10-10--7-7-7---------------------------------- |x4
A|--7-7-7--9-9-9--10-10-10--5-5-5----------------------------------/
E|--5-5-5--7-7-7--8--8--8------------------------------------------

   Intro  ->
  
   Verse  ->

   Chorus ->
  
   Intro  ->

E|-----------------------------------------------------------------
B|-----------------------------------------------------------------
C|-----------------------------------------------------------------
D|--5-7--7-7-7-7--8-7--7-7-7-7--5-7--7-7-7-7--(7)x-x-x-x----------- 
A|--5-7--7-7-7-7--8-7--7-7-7-7--5-7--7-7-7-7--(7)x-x-x-x-----------\
E|--3-5--5-5-5-5--6-5--5-5-5-5--3-5--5-5-5-5--(5)x-x-x-x-----------
								    |x4
E|-----------------------------------------------------------------
B|-----------------------------------------------------------------/
C|-----------------------------------------------------------------
D|--5-7--7-7-7-7--8-7--7-7-7-7--3-3-3-3-3-3-3-3-------------------- 
A|--5-7--7-7-7-7--8-7--7-7-7-7--3-3-3-3-3-3-3-3--------------------
E|--3-5--5-5-5-5--6-5--5-5-5-5--1-1-1-1-1-1-1-1--------------------

   Outro
E|----------------------     --------------------------------------||
B|----------------------     --------------------------------------||
C|----------------------\    --------------------------------------||
D|--4-4-4-4--5-4--5--7-- |x4 --7----7----7-------------------------||
A|--2-2-2-2--3-2--5--7--/    --7----7----7-------------------------||
E|----------------3--5--     --5----5----5-------------------------||
            
Submit corrections

comments powered by Disqus
↑ Back to top | 59 Times The Pain Tabs for To Me Your Dead. Lyrics for acoustic guitar and electric guitar. 1 Tablatures and chords are parodies/interpretations of the original songs. You may use it for private study, scholarship, research or language learning purposes only