» » »

59 Times The Pain, Something Your Not Tabs (ver.1)

Artists:  A B C D E F G H I J K L M N O P Q R S T U V W X Y Z # 

Something Your Not Tabs (ver.1)

59 Times The Pain Tabs
Rating:
0/5 (0 votes)
Something Your Not lessons Tabs too difficult? Try these video lessons and learn fast
                                    SOMETHING YOU'RE NOT - 59 Times The Pain


   Intro
E|-----------------------------------------------------------------
B|-----------------------------------------------------------------
C|-----------------------------------------------------------------\
D|--5-5-5--5-5-5--3--5-6-5--3-3------------------------------------ |x3
A|--5-5-5--5-5-5--1--3-4-3--3-3------------------------------------/
E|--3-3-3--3-3-3------------1-1------------------------------------

E|-----------------------------------------------------------------
B|-----------------------------------------------------------------
C|-----------------------------------------------------------------
D|--5-5-5--5-5-5--3--5-6-----3-3-3--5-5-5-----3-3-3--5----3-3-3----
A|--5-5-5--5-5-5--1--3-4-----3-3-3--5-5-5-----3-3-3--5----3-3-3----
E|--3-3-3--3-3-3-------------1-1-1--3-3-3-----1-1-1--3----1-1-1----
                                            
E|-----------------------------------------------------------------
B|-----------------------------------------------------------------
C|-----------------------------------------------------------------\
D|--5-5-5--7-7-7--8-8-8--10--8--7----5-5-5--7-7-7--8-8-8--3-3-3---- |x2
A|--5-5-5--5-5-5--6-6-6--10--8--7----5-5-5--5-5-5--6-6-6--3-3-3----/
E|--3-3-3----------------8---6--5----3-3-3----------------1-1-1----

   Verse
E|-----------------------------------------------------------------
B|-----------------------------------------------------------------
C|-----------------------------------------------------------------\
D|--5---3---5---3--5--6--5--3--3----------------------------------- |x4
A|--5---3---5---1--3--4--3--1--3-----------------------------------/ 
E|--3---1---3------------------1-----------------------------------

   Chorus
E|-----------------------------------------------------------------
B|-----------------------------------------------------------------
C|-----------------------------------------------------------------\
D|--5-5-5--7-7-7--8-8-8--10--8--7----5-5-5--7-7-7--8-8-8--3-3-3---- |x2
A|--5-5-5--5-5-5--6-6-6--10--8--7----5-5-5--5-5-5--6-6-6--3-3-3----/
E|--3-3-3----------------8---6--5----3-3-3----------------1-1-1----

   Verse  ->

   Chorus ->

E|-----------------------------------------------------------------
B|-----------------------------------------------------------------
C|-----------------------------------------------------------------
D|--5----5----5-5-5--5-5-5--3--5-6-5--3-3--------------------------
A|--5----5----5-5-5--5-5-5--1--3-4-3--3-3--------------------------
E|--3----3----3-3-3--3-3-3------------1-1--------------------------
              |<           x3          >| 

E|-----------------------------------------------------------------
B|-----------------------------------------------------------------
C|-----------------------------------------------------------------
D|--5-5-5--5-5-5--3--5-6----3-3-3----------------------------------
A|--5-5-5--5-5-5--1--3-4----3-3-3----------------------------------
E|--3-3-3--3-3-3------------1-1-1----------------------------------

   Chorus ->

E|-----------------------------------------------------------------||
B|-----------------------------------------------------------------||
C|-----------------------------------------------------------------||
D|--5--------------------------------------------------------------||
A|--5--------------------------------------------------------------||
E|--3--------------------------------------------------------------||
            
Submit corrections

comments powered by Disqus
↑ Back to top | 59 Times The Pain Tabs for Something Your Not. Lyrics for acoustic guitar and electric guitar. Tablatures and chords are parodies/interpretations of the original songs. You may use it for private study, scholarship, research or language learning purposes only