» » »

59 Times The Pain, Need No Alibi Tabs (ver.1)

Artists:  A B C D E F G H I J K L M N O P Q R S T U V W X Y Z # 

Need No Alibi Tabs (ver.1)

59 Times The Pain Tabs
 Rating:
4/5 (4 votes)
Need No Alibi lessons Tabs too difficult? Try these video lessons and learn fast
                

 Intro:
e|-------------------------------------------------------------------------|
B|-------------------------------------------------------------------------|
G|-------------------------------------------------------------------------|
D|--7----------------------------------------------------------------------|
A|--5----------------------------------------------------------------------|
E|-------------------------------------------------------------------------|

 Riff 1:
e|-------------------------------------------------------------------------|
B|-------------------------------------------------------------------------|
G|-------------------------------------------------------------------------|
D|--7----------------------------------------------------------------------|
A|--5-7-9-5----------------------------------------------------------------|
E|----5-7-3----------------------------------------------------------------|

 Riff 2:
e|-------------------------------------------------------------------------|
B|-------------------------------------------------------------------------|
G|-------------------------------------------------------------------------|
D|--7----------------------------------------------------------------------|
A|--5-5-9-7----------------------------------------------------------------|
E|----3-7-5----------------------------------------------------------------|

 Riff 3:
e|-------------------------------------------------------------------------|
B|-------------------------------------------------------------------------|
G|-------------------------------------------------------------------------|
D|--7----------------------------------------------------------------------|
A|--5-5-7------------------------------------------------------------------|
E|----3-5------------------------------------------------------------------|
 
 Intro  x4
 Riff 1 x4
 Riff 2 x4
 Riff 3 x4
 Riff 1 x4
 Riff 2 x4
 Riff 3 x4
 Riff 1 x4
 Intro  x2
 Riff 1 x2
 Riff 2 x2
 Riff 1 x9
            
Submit corrections

comments powered by Disqus
↑ Back to top | 59 Times The Pain Tabs for Need No Alibi. Lyrics for acoustic guitar and electric guitar. Tablatures and chords are parodies/interpretations of the original songs. You may use it for private study, scholarship, research or language learning purposes only