» » »

59 Times The Pain, Make It Go Away Bass tabs (ver.1)

Artists:  A B C D E F G H I J K L M N O P Q R S T U V W X Y Z # 

Make It Go Away Bass tabs (ver.1)

59 Times The Pain Tabs
Rating:
0/5 (0 votes)
Make It Go Away lessons Tabs too difficult? Try these video lessons and learn fast
                Artist - 59 Times the Pain
Song Title - Make it Go Away
Album - End of the Millenium (1999)

Tuning: DADG

Main Riff:

G|-----------------------------------|
D|-----------------------------------|
A|---------------4----------------4--|
D|--6666-6666-666-4--6666-6666-666-4-|

Riff #1:

G|---------------------------------------------------|
D|---------------------------------------------------|
A|--------44-66-------44-66--------------------44-66-|
D|--6666-6------6666-6------6666-6-44-00-6666-6------|

Riff #2:

G|--------------------------|
D|--------------------------|
A|------4-6-4-6-----4-6-4-6-|
D|--8888--------8888--------|

Ending Riff:

G|-------------------------------------|
D|-------------------------------------|
A|---------------4----------------4----|
D|--6666-6666-666-4--6666-6666-666-4-6-|


Play the song in this order:

Main Riff     x2
Riff #1       x1
Main Riff     x2
Riff #1       x1
Main Riff     x1
Riff #2       x1
Main Riff     x1
Riff #2       x1
Main Riff     x2
Ending Riff   x1


Listen to the song for timing.  If you think I'm wrong or 

-Totoro32
            

comments powered by Disqus
↑ Back to top | 59 Times The Pain Bass for Make It Go Away. Lyrics for acoustic guitar and electric guitar. Tablatures and chords are parodies/interpretations of the original songs. You may use it for private study, scholarship, research or language learning purposes only