» » »

59 Times The Pain, Is This It Tabs (ver.1)

Artists:  A B C D E F G H I J K L M N O P Q R S T U V W X Y Z # 

Is This It Tabs (ver.1)

59 Times The Pain Tabs
 Rating:
4/5 (4 votes)
Is This It lessons Tabs too difficult? Try these video lessons and learn fast
1
                

   Verse
E|-----------------------------------------------------------------
B|-----------------------------------------------------------------
C|-----------------------------------------------------------------\
D|--5--7-7--5--7-7--8--7--5--8-8-8--5-5-5-5-5-5--7-7-7-7-7-7------- |x6
A|--3--5-5--3--5-5--6--5--3--8-8-8--5-5-5-5-5-5--7-7-7-7-7-7-------/
E|---------------------------6-6-6--3-3-3-3-3-3--5-5-5-5-5-5-------

   Chorus 
E|-----------------------------------------------------------------
B|-----------------------------------------------------------------
C|-----------------------------------------------------------------\
D|--8-8-8-8-8-8--7--5-5-5-5-5-5---8-8-8-8-8-8--10--12-12-12-12-12-- |x2
A|--8-8-8-8-8-8--7--5-5-5-5-5-5---8-8-8-8-8-8--10--12-12-12-12-12--/
E|--6-6-6-6-6-6--5--3-3-3-3-3-3---6-6-6-6-6-6--8---10-10-10-10-10--

   Verse  ->

   Chorus ->  

E|-----------------------------------------------------------------
B|-----------------------------------------------------------------
C|-----------------------------------------------------------------
D|--5-7--7-7--8-7--8-8-8--8-10--10-10--5-5-5-5---------------------
A|--3-5--5-5--6-5--8-8-8--8-10--10-10--5-5-5-5---------------------\
E|-----------------6-6-6--6-8---8--8---3-3-3-3---------------------
								    |x4
E|-----------------------------------------------------------------
B|-----------------------------------------------------------------/
C|-----------------------------------------------------------------
D|--5-7--7-7--8-7--8-8-8--8-10-------------------------------------
A|--3-5--5-5--6-5--8-8-8--8-10-------------------------------------
E|-----------------6-6-6--6-8--------------------------------------

E|-----------------------------------------------------------------
B|-----------------------------------------------------------------
C|-----------------------------------------------------------------
D|--7-9--9-9--10-9--10-10-10--10-12--12-12--7-7-7-7----------------
A|--5-7--7-7--8--7--10-10-10--10-12--12-12--7-7-7-7----------------\
E|------------------8--8--8---8--10--10-10--5-5-5-5----------------
								    |x4
E|-----------------------------------------------------------------
B|-----------------------------------------------------------------/
C|-----------------------------------------------------------------
D|--7-9--9-9--10-9--10-10-10--10-12--------------------------------
A|--5-7--7-7--8--7--10-10-10--10-12--------------------------------
E|------------------8--8--8---8--10--------------------------------

   Verse  ->

   Chorus ->

E|-----------------------------------------------------------------||
B|-----------------------------------------------------------------||
C|-----------------------------------------------------------------||
D|--7--------------------------------------------------------------||
A|--5--------------------------------------------------------------||
E|-----------------------------------------------------------------||
            
Submit corrections

comments powered by Disqus
↑ Back to top | 59 Times The Pain Tabs for Is This It. Lyrics for acoustic guitar and electric guitar. 1 Tablatures and chords are parodies/interpretations of the original songs. You may use it for private study, scholarship, research or language learning purposes only