» » »

Woo Hoo Tabs (ver.3)

Artists:  A B C D E F G H I J K L M N O P Q R S T U V W X Y Z # 

Woo Hoo Tabs (ver.3)

5678s
Rating:
5/5 (4 votes)

Tabs too difficult? Try these video lessons and learn fast.
                I love this song. Kill Bill is one of my favorite Quentin Tarentino movies, and "Woo
Hoo", by the 5678's always made me laugh, so I learned how to play it. I thought I'd
it share these simple, yet fun tabs with you. Enjoy.

-If numbers are together without spacing(-), it means to double pick the string on that
fret.

"Woo hoo, woo hoo hooooooooooo..."
E--------------------------------------------------------------------------|
B--------------------------------------------------------------------------|
G--------------------------------------------------------------------------|
D--------------2-4-5-4-2-------2-4-5-4-2-------2-4-5-4-2-------2-4-5-4-2---|
A-0000000000-4-----------4-0-4-----------4-0-4-----------4-0-4-----------4-|
E--------------------------------------------------------------------------|

E-----------------------------------------------------------------|
B-----------------------------------------------------------------|
G-----2-4-5-4-2---------------------------------------------------|
D-0-4-----------4-----2-4-5-4-2---2-4-5-4-2-----------2-4-5-4-2---|
A-----------------0-4-----------4-----------5-4-2-0-4-----------4-|
E-----------------------------------------------------------------|

"Woo hoo, woo hoo hoo! Woo hoo, woo hoo hoo!"
E-----------------------------------------------------------------|
B-----------------------------------------------------------------|
G-------------------------------------2-4-5-4-2-------------------|
D-----2-4-5-4-2-------2-4-5-4-2---0-4-----------4-----2-4-5-4-2---|
A-0-4-----------4-0-4-----------4-----------------0-4-----------4-|
E-----------------------------------------------------------------|

                                Drum Solo
E-----------------------------------------------------------|
B-----------------------------------------------------------|
G---------------------------------------2--2--7--2--9--7--2-|
D-2-4-5-4-2-----------2-4-5-4-2---------2--2--7--2--9--7--2-|
A-----------5-4-2-0-4-----------4-------0--0--5--0--7--5--0-|
E-----------------------------------------------------------|

E--------------------------------------------------------------|
B--------------------------------------------------------------|
G-2--2--7--2--9--7--2------------------------------------------|
D-2--2--7--2--9--7--2--------------2-4-5-4-2-------2-4-5-4-2---|
A-0--0--5--0--7--5--0----------0-4-----------4-0-4-----------4-|
E----------------------0-0-2-4---------------------------------|

E-----------------------------------------------------------------|
B-----------------------------------------------------------------|
G-----2-4-5-4-2---------------------------------------------------|
D-0-4-----------4-----2-4-5-4-2---2-4-5-4-2-----------2-4-5-4-2---|
A-----------------0-4-----------4-----------5-4-2-0-4-----------4-|
E-----------------------------------------------------------------|

Play at bridge, quickly double-picking.
Play the frets on twelve, elven, ten, etc. Ex: not one-two-one-two, etc.

E-555555555555--555555555555--101010101010101010101010--555555555555-|
B-555555555555--555555555555--101010101010101010101010--555555555555-|
G-666666666666--666666666666--111111111111111111111111--666666666666-|
D-777777777777--777777777777--121212121212121212121212--777777777777-|
A--------------------------------------------------------------------|
E--------------------------------------------------------------------|

E-121212121212121212121212--101010101010101010101010--555555555555-|
B-121212121212121212121212--101010101010101010101010--555555555555-|
G-131313131313131313131313--111111111111111111111111--666666666666-|
D-141414141414141414141414--121212121212121212121212--777777777777-|
A------------------------------------------------------------------|
E------------------------------------------------------------------|

E-555555555555--555555555555--101010101010101010101010--555555555555-|
B-555555555555--555555555555--101010101010101010101010--555555555555-|
G-666666666666--666666666666--111111111111111111111111--666666666666-|
D-777777777777--777777777777--121212121212121212121212--777777777777-|
A--------------------------------------------------------------------|
E--------------------------------------------------------------------|

E-121212121212121212121212--101010101010101010101010--555555555555-|
B-121212121212121212121212--101010101010101010101010--555555555555-|
G-131313131313131313131313--111111111111111111111111--666666666666-|
D-141414141414141414141414--121212121212121212121212--777777777777-|
A------------------------------------------------------------------|
E------------------------------------------------------------------|

E-----------------------------------------|
B-----------------------------------------|
G-----------------------------------------|
D-------------2-4-5-4-2-------2-4-5-4-2---|
A---------0-4-----------4-0-4-----------4-|
E-0-0-2-4---------------------------------|

E-----------------------------------------------------------------|
B-----------------------------------------------------------------|
G-----2-4-5-4-2---------------------------------------------------|
D-0-4-----------4-----2-4-5-4-2---2-4-5-4-2-----------2-4-5-4-2---|
A-----------------0-4-----------4-----------5-4-2-0-4-----------4-|
E-----------------------------------------------------------------|

E-----------------------------------------------------------------|
B-----------------------------------------------------------------|
G-------------------------------------2-4-5-4-2-------------------|
D-----2-4-5-4-2-------2-4-5-4-2---0-4-----------4-----2-4-5-4-2---|
A-0-4-----------4-0-4-----------4-----------------0-4-----------4-|
E-----------------------------------------------------------------|

E-------------------15-15-15-15-15-15-|
B-------------------14-14-14-14-14-14-|
G-----------------2-------------------|
D-2-4-5-4-2-------2-------------------|
A-----------5-4-2-0-------------------|
E-------------------------------------|
            
Tabs too difficult? Try these video lessons and learn fast.




comments powered by Disqus
↑ Back to top | Tablatures and chords are parodies/interpretations of the original songs. You may use it for private study, scholarship, research or language learning purposes only