» » »

Woo Hoo Bass tabs (ver.1)

Artists:  A B C D E F G H I J K L M N O P Q R S T U V W X Y Z # 

Woo Hoo Bass tabs (ver.1)

5678s
Rating:
4/5 (7 votes)

Hard to play? Try these video lessons and learn fast.
                Intro
G|-------------------------------------------------------------------------|
D|-----------------------2-4-5-4-2-------2-4-5-4-2-------------------------|
A|--0000000000000000-0-4-----------4-0-4-----------4-----------------------|
E|-------------------------------------------------------------------------|

G|------------------------------------2-4-5-4-2----------------------------|
D|----2-4-5-4-2-------2-4-5-4-2---0-4-----------4-----2-4-5-4-2---2--------|
A|0-4-----------4-0-4-----------4-----------------0-4-----------4----------|
E|-------------------------------------------------------------------------|

G|-------------------------------------------------------------------------|
D|4-5-4-2------------2-4-5-4---2-------------------------------------------|
A|--------5-4-2----4---------4---------------------------------------------|
E|--------------5----------------------------------------------------------|

Chorus
G|------------------------------------2-4-5-4-2----------------------------|
D|----2-4-5-4-2-------2-4-5-4-2---0-4-----------4-----2-4-5-4-2---2--------|
A|0-4-----------4-0-4-----------4-----------------0-4-----------4----------|
E|-------------------------------------------------------------------------|

G|-------------------------------------------------------------------------|
D|4-5-4-2------------2-4-5-4---2-------------------------------------------|
A|--------5-4-2----4---------4---------------------------------------------|
E|--------------5----------------------------------------------------------|

Verse (Drum Solo)
G|-------------------------------------------------------------------------|
D|-------------------------------------------------------------------------|
A|--------------5------------7----5----------------------------------------|
E|-5-----5-------------5----------------5----------------------------------|

G|-------------------------------------------------------------------------|
D|-------------------------------------------------------------------------|
A|--------------5------------7----5----------------------------------------|
E|-5-----5-------------5----------------5----------------------------------|

Chorus
G|------------------------------------2-4-5-4-2----------------------------|
D|----2-4-5-4-2-------2-4-5-4-2---0-4-----------4-----2-4-5-4-2---2--------|
A|0-4-----------4-0-4-----------4-----------------0-4-----------4----------|
E|-------------------------------------------------------------------------|

G|-------------------------------------------------------------------------|
D|4-5-4-2------------2-4-5-4---2-------------------------------------------|
A|--------5-4-2----4---------4---------------------------------------------|
E|--------------5----------------------------------------------------------|

Guitar Bridge
G|-------------------------------------------------------------------------|
D|-------------------------------------------------------------------------|
A|--------------5------------7----5----------------------------------------|
E|-5-----5-------------5----------------5----------------------------------|

G|-------------------------------------------------------------------------|
D|-------------------------------------------------------------------------|
A|--------------5------------7----5----------------------------------------|
E|-5-----5-------------5----------------5----0-0-2-4-----------------------|

Chorus
G|------------------------------------2-4-5-4-2----------------------------|
D|----2-4-5-4-2-------2-4-5-4-2---0-4-----------4-----2-4-5-4-2---2--------|
A|0-4-----------4-0-4-----------4-----------------0-4-----------4----------|
E|-------------------------------------------------------------------------|

G|-------------------------------------------------------------------------|
D|4-5-4-2------------2-4-5-4---2-------------------------------------------|
A|--------5-4-2----4---------4---------------------------------------------|
E|--------------5----------------------------------------------------------|

G|------------------------------------2-4-5-4-2----------------------------|
D|----2-4-5-4-2-------2-4-5-4-2---0-4-----------4-----2-4-5-4-2---2--------|
A|0-4-----------4-0-4-----------4-----------------0-4-----------4----------|
E|-------------------------------------------------------------------------|

G|-------------------------------------------------------------------------|
D|4-5-4-2-0----------------------------------------------------------------|
A|----------4-2-0-----000--------------------------------------------------|
E|-------------------------------------------------------------------------|

pretty simple eh....
            
Hard to play? Try these video lessons and learn fast. | Correct




comments powered by Disqus
↑ Back to top | Tablatures and chords are parodies/interpretations of the original songs. You may use it for private study, scholarship, research or language learning purposes only