>
 >
Road Runner

Road Runner Guitar Tabs

5678s - Road Runner chords, tabs, tablatures, lyrics

Guitar lessons | Add/correct | Request | Top 50 tabs Artists:  A B C D E F G H I J K L M N O P Q R S T U V W X Y Z 0-9

Road Runner Guitar Tabs – 5678s

CD, Sheet music, Poster

Do you like Road Runner? Share with your friends now
Tabs


Standard Tuning

This song has some really dirty and crunchy guitar tones...mmh love it!

I couldn't find a tab for this awesome song, so I decided to tab it.
I don't know if it's played like this, and I don't guarantee
that this tab is correct but it's really close to the real song.

Note: This tab just represents the notes, for the rhythme and timing please listen to the song!

btw, this is my first tab ;)



Intro

e----------------------------------------------------------------|
B----------------------------------------------------------------|
G----------------------------------------------------------------|
D----------------------------------------------------------------|
A----------------------------------------------------------------|
E--/////////////////-\\\\\\\\\-0---------------------------------|
   
   |-------pick scratch-------| 	
			

"Road Runner"


The numbers in the brackets are some random slides or pick scratches;
I tabbed it as slides ;).
Don't know if its right, but you get the idea.

e----------------------------------------------------------------|
B----------------------------------------------------------------|
G----------------------------------------------------------------|
D----------------------------------------------------------------|
A--0-0-4-5-7--/7-5-4-0--(4\0)--0-0-4-5-7--/7-5-4-0---------------|
E----------------------------------------------------------------|


e----------------------------------------------------------------|
B----------------------------------------------------------------|
G----------------------------------------------------------------|
D-------0-0-4-5-7--/7-5-4-0-------------------------------/6666--|
A--(4\0)----------------------(4\0)--0-0-4-5-7--/7-5-4-0---------|
E----------------------------------------------------------------|


I don't know exactly how long each note is played but I play each note 4 times double picking.
The last part is kinda hard to describe, but I think it sounds good.


played 2x                               * pinch harmonics    2nd time it ends on this

e-----------------------------------------------------|-5*-|-5-5-|
B-----------------------------------------------------|-5*-|-5-5-|
G-----------------------------------------------------|----|-----|
D------------------------------------------7--7-7---7-|----|-----|
A------------------------------------------7--7-7---7-|----|-----|
E-0000/1111/2222/3333/4444/5555/6666/7777--5--5-5---5-|----|-----|

   |-----------double picking-----------|		     "Meep Meep"


                                                           

"Can you catch me baby?"


play this 2 times...

e----------------------------------------------------------------|
B----------------------------------------------------------------|
G----------------------------------------------------------------|
D--7-7-11-12-14-14-12b13r12-14-12b13r12-14-12b13r12-14-14--------|
A----------------------------------------------------------------|
E----------------------------------------------------------------|

e----------------------------------------------------------------|
B----------------------------------------------------------------|
G----------------------------------------------------------------|
D--11-12-7-7-7-6b-7-7--------------------------------------------|
A----------------------------------------------------------------|
E----------------------------------------------------------------|


...then continue with this...

e----------------------------------------------------------------|
B----------------------------------------------------------------|
G--7-7-11-12-14-14-12b13r12-14-12b13r12-14-12b13r12-14-14--------|
D----------------------------------------------------------------|
A----------------------------------------------------------------|
E----------------------------------------------------------------|

e----------------------------------------------------------------|
B----------------------------------------------------------------|
G--11-12-7-7-7-6b-7-7--------------------------------------------|
D----------------------------------------------------------------|
A----------------------------------------------------------------|
E----------------------------------------------------------------|

...

e----------------------------------------------------------------|
B----------------------------------------------------------------|
G----------------------------------------------------------------|
D--7-7-11-12-14-14-12b13r12-14-12b13r12-14-12b13r12-14-14--------|
A----------------------------------------------------------------|
E----------------------------------------------------------------|

e----------------------------------------------------------------|
B----------------------------------------------------------------|
G----------------------------------------------------------------|
D--11-12-7-7-7-6b-7-7--7/9\5\0-----------------------------------|
A----------------------------------------------------------------|
E----------------------------------------------------------------|


some notes are ending with some down slides

e----------------------------------------------------------------|
B-----15-12------------------------------------------------------|
G--12-------12----14-11------------------------------------------|
D--------------12-------12----14-11------------------------------|
A--------------------------12-------12---------------------------|
E---------------------------------------12-12-12-----------------|

"Meep Meep"

e----------------------------------------------------------------|
B----------------------------------------------------------------|
G----------------------------------------------------------------|
D--7-x-x--7-7-x-x--7-7-x-x--7-7-x-x--7-7-x-x--7-7-x-x--7-7-x-x---|
A--7-x-x--7-7-x-x--7-7-x-x--7-7-x-x--7-7-x-x--7-7-x-x--7-7-x-x---|
E--5-x-x--5-5-x-x--5-5-x-x--5-5-x-x--5-5-x-x--5-5-x-x--5-5-x-x---|

e----------------------------------------------------------------|
B----------------------------------------------------------------|
G----------------------------------------------------------------|
D--7-7--2-x-x--2--2-2--2--2-2--x--x-x-x--7-x-x--7-x-x-x--7-7-x-x-|
A--7-7--2-x-x--2--2-2--2--2-2--x--x-x-x--7-x-x--7-x-x-x--7-7-x-x-|
E--5-5--0-x-x--0--0-0--0--0-0--x--x-x-x--5-x-x--5-x-x-x--5-5-x-x-|

				 
                                  I think it's an E chord but I'm not sure.

e-------------------------------|--------------------------------|
B-------------------------------|--------------------------------|
G-------------------------------|--------------------------------|
D--7-7-x-x--7-x-x--7--7-7-------|----14-----14-14-----14-14------|
A--7-7-x-x--7-x-x--7--7-7-------|----14-----14-14-----14-14------|
E--5-5-x-x--5-x-x--5--5-5--0/12-|-12-----12-12-12--12-12-12------|
                            ^
                            |-double picking
                            play each note at least 3 or 4 times

e----------------------------------------------------------------|
B----------------------------------------------------------------|
G----------------------------------------------------------------|
D-----x-x--x-x-x--14-x--7--x-x--7-7-7-7--7-7-x-x--7-7-x-x--7-----|
A-----x-x--x-x-x--14-x--7--x-x--7-7-7-7--7-7-x-x--7-7-x-x--7-----|
E--12-x-x--x-x-x--12-x--5--x-x--5-5-5-5--5-5-x-x--5-5-x-x--5-----|


e----------------------------------------------------------------|
B----------------------------------------------------------------|
G----------------------------------------------------------------|
D----------------------------------------------------------------|
A------------------------------0--/12~---------------------------|
E--////////-\\\\\\\\\\-------------------------------------------|

   |---pick scratch---|

	               "Meep Meep, Meep Meep"

e----------------------------------------------------------------|
B----------------------------------------------------------------|
G----------------------------------------------------------------|
D----------------------------------------------------------------|
A--0-0-4-5-7--/7-5-4-0--(4\0)--0-0-4-5-7--/7-5-4-0---------------|
E----------------------------------------------------------------|


e----------------------------------------------------------------|
B----------------------------------------------------------------|
G----------------------------------------------------------------|
D-------0-0-4-5-7--/7-5-4-0-------------------------------/6666--|
A--(4\0)----------------------(4\0)--0-0-4-5-7--/7-5-4-0---------|
E----------------------------------------------------------------|

played 3x                                               

e--------------------------------------------------------|-5-5---|
B--------------------------------------------------------|-5-5---|
G--------------------------------------------------------|-------|
D---------------------------------------------7--7-7---7-|-------|
A---------------------------------------------7--7-7---7-|-------|
E--0000/1111/2222/3333/4444/5555/6666/7777----5--5-5---5-|-------|

   |-----------double picking------------|                "Meep Meep"

						                
                                            
3rd time it ends on

e--5--5~---------------------------------------------------------|
B--5--5~---------------------------------------------------------|
G----------------------------------------------------------------|
D----------------------------------------------------------------|
A----------------------------------------------------------------|
E--------------------------5\0-----------------------------------|





Comments


Popular 5678s tabs & chords
Woo Hoo Bass Tabs
Woo Hoo 1 Bass Tabs
Highschool Witch Tabs
Woo Hoo Tabs
Woo Hoo (Intro) Tabs
Woo Hoo 1 Tabs


Song lyrics



↑ Back to top | Tablatures and chords are parodies/interpretations of the original songs. You may use it for private study, scholarship, research or language learning purposes only
© 2014 AZChords.com Contact us | Privacy policy | DMCA | Add/correct tabs | Request tabs | Top 50 tabs