» » »

Stormy Tabs (ver.1)

Artists:  A B C D E F G H I J K L M N O P Q R S T U V W X Y Z # 

Stormy Tabs (ver.1)

54-40
Rating:
0/5 (0 votes)

Hard to play? Try these video lessons and learn fast.
                (Intro)
Capo 3  this is just the main verse, im not even sure its right, but if you ask me, it 
pretty close

e |-------3-3-3-3-3-3-3-3-----6-------6-------3-3-3-3-3-3-3-3-----6-----6-|
B |-------6-6-6-6-6-6-6-6-----6-------6-------6-6-6-6-6-6-6-6-----6-----6-|
G |-------7-7-7-7-7-7-7-7-----3-------3-------7-7-7-7-7-7-7-7-----3-----3-|
D |-------3-3-3-3-3-3-3-3-----3-------3-------3-3-3-3-3-3-3-3-----3-----3-|
A |------------------------------3h5--------------------------------3h5---|
E |-3----------------------6---------------3-------------------6----------|

e |---5------5-----6-----5-----5---------------------------------|
B |-----6------6-----6-----6-----6---5-----5-----6-----5-----5---|
G |-------5------5-----5-----5---------5-----5-----5-----5-----5-|
D |-3------------------------------5-----5-----5-----5-----5-----|
A |--------------------------------------------------------------|
E |--------------------------------------------------------------|

e |---6-6----6-6-----6-6-----6-6----------3--|
B |---6-6----6-6-----6-6-----6-6--------5----|
G |---3-3----3-3-----3-3-----3-3------3------|
D |-3-----3-------3-------3---------4--------|
A |-5-----5-------5-------5-------3----------|
E |-6-----6-------6-------6------------------|

and thats about it, again, im not positive if this is 100% accurate, but its the best i 
do.
            
Hard to play? Try these video lessons and learn fast. | Correct




comments powered by Disqus
↑ Back to top | Tablatures and chords are parodies/interpretations of the original songs. You may use it for private study, scholarship, research or language learning purposes only