» » »

54-40, She-la Bass tabs (ver.1)

Artists:  A B C D E F G H I J K L M N O P Q R S T U V W X Y Z # 

She-la Bass tabs (ver.1)

54-40 Tabs
 Rating:
4/5 (4 votes)
She-la lessons Tabs too difficult? Try these video lessons and learn fast
                She-La – (54-40)

Riff 1: A , D , C       Repeats
Riff 2: A , G , F , D   Repeats

Bass
4/4 Fast Rock

Intro (Riff 1) – [holding back a bit]
  eeeeeeee eeeeeeee
G|--------|--------|
D|--------|--------| X 6 (Guitar and/or Bass)
A|--------|55553333|
E|55555555|--------|

Verse (Riff 1) [0:25]
“you are gonna find him …”
  EE  Q.   Q.   EQ
G|--------|--------|
D|--------|--------| X 4
A|--------|5----33-|
E|55--5---|--------|

Chorus: (Riff 1) [0:43]
“Don’t She look, Don’t She look happy…”
  q q eQ.  eQ. eQ.
G|--------|--------|
D|--------|--------| X 4
A|--------|55--33--|
E|5-5-55--|--------|

“Going to start living…” [1:00]
  EE   E   E    E
G|--------|--------|
D|--------|--------| X 4
A|--------|--------|
E|55---5--|5----5--|

Verse (Riff 1) [1:17]

Chorus: (Riff 1) [1:34]

Chorus: (Riff 2) [1:50]
  EQ. EQ.  EQ. EQ.  EQ. EQ.  EQ. EQ.
G|--------|--------|--------|--------|
D|--------|--------|--------|--------| X 2
A|--------|--------|--------|55--55--|
E|55--55--|33--33--|11--11--|--------|

She-La – (54-40) pg.2

Bridge [2:07]
  H                          H   H
G|--------|--------|--------|--------|
D|--------|--------|--------|--------|
A|--------|--------|--------|5---5---|
E|5---\---|--------|--------|--------|

Solo: (Riff 1) [2:16]
  q q eeQ  eeQ eeQ
G|--------|--------|
D|--------|--------| X 4
A|--------|555-333-|
E|5-5-555-|--------|

Vocal Solo (Riff 1) [2:33]
  eE       H   H    eE       Q. H     eE       H   H
G|--------|--------|--------|--------|--------|--------|
D|--------|--------|--------|--------|--------|--------|
A|--------|5---3---|--------|5--3----|--------|5---3---|
E|55------|--------|55------|--------|55------|--------|

  eE       Q. H
G|--------|--------|
D|--------|--------|
A|--------|5--3----|
E|55------|--------|

Chorus: (Riff 1) [2:49]
“Don’t She look; Don’t She look happy…”
  q q eQ.  eQ. eQ.
G|--------|--------|
D|--------|--------| X 4
A|--------|55--33--|
E|5-5-55--|--------|

Chorus: (Riff 2) [3:06]
  EQ. EQ.  EQ. EQ.  EQ. EQ.  EQ. EQ.
G|--------|--------|--------|--------|
D|--------|--------|--------|--------| X 6 (Gets slower & fade)
A|--------|--------|--------|5-5-5-5-|         Ends on A
E|5-5-5-5-|3-3-3-3-|1-1-1-1-|--------|

Duration Legend
---------------
W - whole; H - half; Q - quarter; E - 8th; S - 16th
Uncapitalized letters represent notes that are staccato (1/2 duration)
Duration letters will always appear directly above the note/fret number it represents 
duration for.

I think I am fairly accurate with this tab, however you might want to improvise some of 
rhythms on the repeats. |Q Q EE.E| or |EEQ EQ E|etc.[See Drummer!]
                                    |5-5-55-5|    |555-55-5|
54-40 is a Great Canadian Band
I think they are from Vancouver, BC
Vancouver Island Rocks!
            
Submit corrections

comments powered by Disqus
↑ Back to top | 54-40 Bass for She-la. Lyrics for acoustic guitar and electric guitar. Tablatures and chords are parodies/interpretations of the original songs. You may use it for private study, scholarship, research or language learning purposes only