» » »

Ocean Pearl Bass tabs (ver.2)

Artists:  A B C D E F G H I J K L M N O P Q R S T U V W X Y Z # 

Ocean Pearl Bass tabs (ver.2)

54-40
Rating:
0/5 (0 votes)

Hard to play? Try these video lessons and learn fast.
                54 40

Guitar Opens and then Bass Comes In.

Intro / Verse / Chorus
G|-----------------------------|
D|-----------0----------0------|
A|------0h2-----0--0h2---------|
E|---0---------------------0---|

Pre-Chorus
G|-----------------------------|
D|-----------------------------|
A|---------222222--------------|
E|---333333--------0-----------|



Solo Bit

Bass plays this through the whole solo.
G|-----------------------------|
D|-----------0----------0------|
A|------0h2-----0--0h2---------|
E|---0---------------------0---|
            
Hard to play? Try these video lessons and learn fast. | Correct




comments powered by Disqus
↑ Back to top | Tablatures and chords are parodies/interpretations of the original songs. You may use it for private study, scholarship, research or language learning purposes only