» » »

54-40, Ocean Pear Tabs (ver.1)

Artists:  A B C D E F G H I J K L M N O P Q R S T U V W X Y Z # 

Ocean Pear Tabs (ver.1)

54-40 Tabs
 Rating:
4/5 (4 votes)
Ocean Pear lessons Tabs too difficult? Try these video lessons and learn fast
                (Intro)
This is My First Tab and im f**king fed up with wrong tabs. so here it goes

Tuning: Standard


intro.

------------------------------------------------------|
------------------------------------------------------|
------------------------------------------------------|
------------------------------------------------------|
-2---------5--------------5---------------------------|
-0---5-7------5------5-7------------------------------|


------------------------------------------------------|
------------------------------------------------------|
------------------------------------------------------|
------------------------------------------------------|
-------------22222222---------------------------------|
---33333333-------------------------------------------|


************But I Spice It Up A Bit **************

Low = 5              Mid = scooped(0)         Treb/High = 9

A Fair Amount Of Distortion

-------------------------------------------------------|
-------------------------------------------------------|
-------------------------------------------------------|
-2---x-----p.h--x--------x-----------------------------|
-2---x------5---x--------x-------5 ~  -----------------|
-0---x--5h7-----x--5 ~ --x---5h7-----------------------|

-----------------------------------------------------|
-----------------------------------------------------|
-----------------------------------------------------|
-2---x-----p.h--x--------x---------------------------|
-2---x------5---x--------x-------5\ ~ ---------------|
-0---x--5h7-----x--5 ~ --x---5h7---------------------|


-------------------------------------------------------|
-------------------------------------------------------|
---------4---------------------------------------------|
-5-------4---------------------------------------------|
-5-------2---------------------------------------------|
-3-----------------------------------------------------|
x8      x8


Thats All Folks

Please Rate
            
Submit corrections

comments powered by Disqus
↑ Back to top | 54-40 Tabs for Ocean Pear. Lyrics for acoustic guitar and electric guitar. Tablatures and chords are parodies/interpretations of the original songs. You may use it for private study, scholarship, research or language learning purposes only