» » »

54-40, Lucy Bass tabs (ver.1)

Artists:  A B C D E F G H I J K L M N O P Q R S T U V W X Y Z # 

Lucy Bass tabs (ver.1)

54-40 Tabs
 Rating:
4.2/5 (5 votes)
Lucy lessons Tabs too difficult? Try these video lessons and learn fast
                Hey, this is my first tab everyone, its pretty accurate but if you have any 

LUCY BY 54-40


Intro Riff
G|-------------------------------------------------------------------|
D|-------------------------------------------------------------------|  x2
A|5-5-5-5-5-5-5-5-----------------------------------5-5-5-5-5-5-5-5-5|
E|----------------5-5-5-5-5-5-5-5-5-3-3-3-3-3-3-3-3------------------|


Verse Riff A
G|-------------------------------------------------------------------|
D|-------------------------------------------------------------------|  x2
A|5-5-5-5-5-5-5-5-----------------------------------5-5-5-5-5-5-5-5-5| 
E|----------------5-5-5-5-5-5-5-5-5-3-3-3-3-3-3-3-3------------------|

Verse Riff B (there is an extra diddy between chords im too lazy to tab)
G|------------------------------------------------------------------|
D|------------------------------------------------------------------|  x2
A|5-5-5-5-5-5-5-5-4-4-4-4-4-4-4-4-----------------5-5-5-5-5-5-5-5-5-|
E|--------------------------------7-7-7-7-7-7-7-7-------------------|

Chorus Riff
G|-------------------------------------------------------------------|
D|-------------------------------------------------------------------|  x2
A|5-5-5-5-5-5-5-5/7-7-7-7-7-7-7-7/5-5-5-5-5-5-5-5-5-5-5-5-5-5-5-5----| 
E|-------------------------------------------------------------------|

Verse Riff A x2

Verse Riff B x2

Chorus Riff x 2

Verse Riff A x2 (guitar solo)

Bridge
G|------|------|--------|-------|
D|------|------|--------|-------|  x3
A|5-5-5/|7-7-7/|10-10-10|-5-5-5-|
E|------|------|--------|-------|
  H Q Q  H Q Q  H  Q  Q   H Q Q

Last time

Bridge
G|------|------|--------|-------|
D|------|------|--------|-------|  x1
A|5-5-5-|------|10-10-10|-5-5-5-|
E|------|5-5-5-|--------|-------|
  H Q Q  H Q Q  H  Q  Q   H Q Q

Chorus Riff                                                            _
G|-------------------------------------------------------------------|  |
D|-------------------------------------------------------------------|  |
A|5-5-5-5-5-5-5-5/7-7-7-7-7-7-7-7/5-5-5-5-5-5-5-5-5-5-5-5-5-5-5-5----|  |
E|-------------------------------------------------------------------|  |
                                                                        | Repeat till end
G|-------------------------------------------------------------------|  |
D|-------------------------------------------------------------------|  |
A|5-5-5-5-5-5-5-5-----------------------------------5-5-5-5-5-5-5-5-5|  |
E|----------------5-5-5-5-5-5-5-5-5-3-3-3-3-3-3-3-3------------------| _|
                                                                       
            
Submit corrections

comments powered by Disqus
↑ Back to top | 54-40 Bass for Lucy. Lyrics for acoustic guitar and electric guitar. Tablatures and chords are parodies/interpretations of the original songs. You may use it for private study, scholarship, research or language learning purposes only