>
 >
Love You All

Love You All Guitar Tabs

54-40 - Love You All chords, tabs, tablatures, lyrics

Guitar lessons | Add/correct | Request | Top 50 tabs Artists:  A B C D E F G H I J K L M N O P Q R S T U V W X Y Z 0-9

Love You All Guitar Tabs – 54-40

CD, Sheet music, Poster

Do you like Love You All? Share with your friends now
Tabs
================================================================
                      Love You all- 54-40
================================================================
                      As recorded by 54-40
             (From the 1996 Album Trusted by Millions)

Words and Music by 54-40


Tuning: (E A D G B e) - 'Standard Tuning'


Legend
. = Palm Mute
b = Bend
/ = Slide
~ = Vibrato
h = hammer on

Intro

e------------------------------------------------------------|
b------------------------------------------------------------|
g------------------------------------------------------------| x2
d---------------------------------------------2--------2-----|
a-----6-----6---6-----6----6-------4-----4----2--2-2-2-2-----|
E--7----7-----7---7------7----7/5-----5-----5/0--0-0-0-0-----|

Verse 1

e------------------------------------------------------------------------|
b------------------------------------------------------------------------|
g------------------------------------------------------------------------| x2
d------------------------------------------------------------------------|
a-9-9-9-9-9-9-9-9-9-9-9-9-9-9-9-9/7-7-7-7-7-7-7-7-7-7/2-2-2-2-2-2-2-2----|
E-7-7-7-7-7-7-7-7-7-7-7-7-7-7-7-7/5-5-5-5-5-5-5-5-5-5/0-0-0-0-0-0-0-0----|
  . . . . . . . . . . . . . . . . . . . . . . . . . . . . . . . . . .

Then play Intro (with slight palm muting)


Verse 2

e--------------------------------------------------------------|
b--------------------------------------------------------------|
g--------------------------------------------------------------| x2
d-----------------------------------------------2--------2-----|
a-----6-7--6---6------6-7--6---6-----4-----4----2--2-2-2-2-----|
E--7---------7-----7---------7----5-----5-----5/0--0-0-0-0-----|


Then play Verse 1


Then play Intro (with slight palm muting)


Chorus

(A fuzzy guitar slides down notes in the background)
e---------------------------------------------------------------------|
b---------------------------------------------------------------------|
g---------------------------------------------------------------------| x2
d--9---9--9--9-9-9---9---9--9--9-9-9--7---7--7--7-7-7--2--------2-----|
a--9---9--9--9-9-9---9---9--9--9-9-9--7---7--7--7-7-7--2--2-2-2-2-----|
E--7---7--7--7-7-7---7---7--7--7-7-7--5---5--5--5-5-5--0--0-0-0-0-----|


Then play Verse 1


Then play Intro (with slight palm muting)


Then play Chorus (this time only once)


Solo

(*This is just an outline of the solo, remember to improvise! should be
somewhat close though)

(chorus riff in the background)
e--------------------------------------------------------------------|
b-------12------12-12-12-------12------12-12-12------12----12----12--|
g--11~-----11~-------------11~----11~------------11~----11----11-----|
d--------------------------------------------------------------------|
a--------------------------------------------------------------------|
E--------------------------------------------------------------------|

e--------------------------------------------------------------------|
b--------12-10-12---14b---12-10-12---12/10h12--15---12--12-----------|
g--14b---------------------------------------------------------------|
d--------------------------------------------------------------------|
a--------------------------------------------------------------------|
E--------------------------------------------------------------------|

e--------------------------------------------------------------------|
b--12/10h12--15---12--12--12/10h12--15---12--12--19~--19~--19/17-----|
g--------------------------------------------------------------------|
d--------------------------------------------------------------------|
a--------------------------------------------------------------------|
E--------------------------------------------------------------------|

e-----------------------------|
b--15h17--19--15--19--12~-----|
g-----------------------------|
d-----------------------------|
a-----------------------------|
E-----------------------------|


Then a break


Then play intro (more quietly than usual, but no palm muting)
(Verse 2 comes in about halfway through in background)


Then verse 2 comes to foreground
(with chorus riff in the background)


Then play chorus


Then play solo


Then play this ending riff:

(let the 0s ring)
e------------0-------------------0----------------------0-------------------------0-----------|
b------------0-------------------0----------------------0-------------------------0-----------|
g---------------------------------------------------------------------------------------------| x2
d--9---9--9----9-9-9---9---9--9----9-9-9---11---11--11----11-11-11---14---14--14----14-14-14--|
a--9---9--9----9-9-9---9---9--9----9-9-9---11---11--11----11-11-11---14---14--14----14-14-14--|
E--7---7--7----7-7-7---7---7--7----7-7-7----9----9---9-----9--9--9---12---12--12----12-12-12--|


Then play this with the ending riff in the background until the song fades out:

note in ()s only played the first time
e-----------------------------|
b-----------------------------|
g--(10b~)----11----8-----4----|
d-----------------------------|
a-----------------------------|
E-----------------------------|





Comments


Popular 54-40 tabs & chords
Blame Your Parents Chords
Casual Viewing Chords
Crossing A Canyon Chords
I Go Blind Chords
One Gun 1 Chords
Unbend Chords
Easy To Love Tabs
Love You All Intro Tabs
Ocean Pear Intro Tabs
Ocean Pearl 2 Tabs


Song lyrics



↑ Back to top | Tablatures and chords are parodies/interpretations of the original songs. You may use it for private study, scholarship, research or language learning purposes only
© 2014 AZChords.com Contact us | Privacy policy | DMCA | Add/correct tabs | Request tabs | Top 50 tabs